  0
SECTION
  2
HEADER
  9
$ACADVER
  1
AC1015
  9
$ACADMAINTVER
 70
    20
  9
$DWGCODEPAGE
  3
ANSI_1252
  9
$INSBASE
 10
0.0
 20
0.0
 30
0.0
  9
$EXTMIN
 10
296522.0
 20
697664.5300000001
 30
0.0
  9
$EXTMAX
 10
296638.0
 20
697812.6000000002
 30
44.1
  9
$LIMMIN
 10
0.0
 20
0.0
  9
$LIMMAX
 10
12.0
 20
9.0
  9
$ORTHOMODE
 70
     0
  9
$REGENMODE
 70
     1
  9
$FILLMODE
 70
     1
  9
$QTEXTMODE
 70
     0
  9
$MIRRTEXT
 70
     0
  9
$LTSCALE
 40
1.0
  9
$ATTMODE
 70
     1
  9
$TEXTSIZE
 40
0.2
  9
$TRACEWID
 40
0.05
  9
$TEXTSTYLE
  7
Standard
  9
$CLAYER
  8
0
  9
$CELTYPE
  6
Continuous
  9
$CECOLOR
 62
   256
  9
$CELTSCALE
 40
1.0
  9
$DISPSILH
 70
     0
  9
$DIMSCALE
 40
1.0
  9
$DIMASZ
 40
0.18
  9
$DIMEXO
 40
0.0625
  9
$DIMDLI
 40
0.38
  9
$DIMRND
 40
0.0
  9
$DIMDLE
 40
0.0
  9
$DIMEXE
 40
0.18
  9
$DIMTP
 40
0.0
  9
$DIMTM
 40
0.0
  9
$DIMTXT
 40
0.18
  9
$DIMCEN
 40
0.09
  9
$DIMTSZ
 40
0.0
  9
$DIMTOL
 70
     0
  9
$DIMLIM
 70
     0
  9
$DIMTIH
 70
     1
  9
$DIMTOH
 70
     1
  9
$DIMSE1
 70
     0
  9
$DIMSE2
 70
     0
  9
$DIMTAD
 70
     0
  9
$DIMZIN
 70
     0
  9
$DIMBLK
  1

  9
$DIMASO
 70
     1
  9
$DIMSHO
 70
     1
  9
$DIMPOST
  1

  9
$DIMAPOST
  1

  9
$DIMALT
 70
     0
  9
$DIMALTD
 70
     2
  9
$DIMALTF
 40
25.4
  9
$DIMLFAC
 40
1.0
  9
$DIMTOFL
 70
     0
  9
$DIMTVP
 40
0.0
  9
$DIMTIX
 70
     0
  9
$DIMSOXD
 70
     0
  9
$DIMSAH
 70
     0
  9
$DIMBLK1
  1

  9
$DIMBLK2
  1

  9
$DIMSTYLE
  2
Standard
  9
$DIMCLRD
 70
     0
  9
$DIMCLRE
 70
     0
  9
$DIMCLRT
 70
     0
  9
$DIMTFAC
 40
1.0
  9
$DIMGAP
 40
0.09
  9
$DIMJUST
 70
     0
  9
$DIMSD1
 70
     0
  9
$DIMSD2
 70
     0
  9
$DIMTOLJ
 70
     1
  9
$DIMTZIN
 70
     0
  9
$DIMALTZ
 70
     0
  9
$DIMALTTZ
 70
     0
  9
$DIMUPT
 70
     0
  9
$DIMDEC
 70
     4
  9
$DIMTDEC
 70
     4
  9
$DIMALTU
 70
     2
  9
$DIMALTTD
 70
     2
  9
$DIMTXSTY
  7
Standard
  9
$DIMAUNIT
 70
     0
  9
$DIMADEC
 70
     0
  9
$DIMALTRND
 40
0.0
  9
$DIMAZIN
 70
     0
  9
$DIMDSEP
 70
    46
  9
$DIMATFIT
 70
     3
  9
$DIMFRAC
 70
     0
  9
$DIMLDRBLK
  1

  9
$DIMLUNIT
 70
     2
  9
$DIMLWD
 70
    -2
  9
$DIMLWE
 70
    -2
  9
$DIMTMOVE
 70
     0
  9
$LUNITS
 70
     2
  9
$LUPREC
 70
     4
  9
$SKETCHINC
 40
0.1
  9
$FILLETRAD
 40
0.0
  9
$AUNITS
 70
     0
  9
$AUPREC
 70
     0
  9
$MENU
  1
.
  9
$ELEVATION
 40
0.0
  9
$PELEVATION
 40
0.0
  9
$THICKNESS
 40
0.0
  9
$LIMCHECK
 70
     0
  9
$CHAMFERA
 40
0.0
  9
$CHAMFERB
 40
0.0
  9
$CHAMFERC
 40
0.0
  9
$CHAMFERD
 40
0.0
  9
$SKPOLY
 70
     0
  9
$TDCREATE
 40
2459418.515441158
  9
$TDUCREATE
 40
2459418.515441158
  9
$TDUPDATE
 40
2459949.539525162
  9
$TDUUPDATE
 40
2459949.539525162
  9
$TDINDWG
 40
0.0034502431
  9
$TDUSRTIMER
 40
0.0034502431
  9
$USRTIMER
 70
     1
  9
$ANGBASE
 50
0.0
  9
$ANGDIR
 70
     0
  9
$PDMODE
 70
     0
  9
$PDSIZE
 40
0.0
  9
$PLINEWID
 40
0.0
  9
$SPLFRAME
 70
     0
  9
$SPLINETYPE
 70
     6
  9
$SPLINESEGS
 70
     8
  9
$HANDSEED
  5
724
  9
$SURFTAB1
 70
     6
  9
$SURFTAB2
 70
     6
  9
$SURFTYPE
 70
     6
  9
$SURFU
 70
     6
  9
$SURFV
 70
     6
  9
$UCSBASE
  2

  9
$UCSNAME
  2

  9
$UCSORG
 10
0.0
 20
0.0
 30
0.0
  9
$UCSXDIR
 10
1.0
 20
0.0
 30
0.0
  9
$UCSYDIR
 10
0.0
 20
1.0
 30
0.0
  9
$UCSORTHOREF
  2

  9
$UCSORTHOVIEW
 70
     0
  9
$UCSORGTOP
 10
0.0
 20
0.0
 30
0.0
  9
$UCSORGBOTTOM
 10
0.0
 20
0.0
 30
0.0
  9
$UCSORGLEFT
 10
0.0
 20
0.0
 30
0.0
  9
$UCSORGRIGHT
 10
0.0
 20
0.0
 30
0.0
  9
$UCSORGFRONT
 10
0.0
 20
0.0
 30
0.0
  9
$UCSORGBACK
 10
0.0
 20
0.0
 30
0.0
  9
$PUCSBASE
  2

  9
$PUCSNAME
  2

  9
$PUCSORG
 10
0.0
 20
0.0
 30
0.0
  9
$PUCSXDIR
 10
1.0
 20
0.0
 30
0.0
  9
$PUCSYDIR
 10
0.0
 20
1.0
 30
0.0
  9
$PUCSORTHOREF
  2

  9
$PUCSORTHOVIEW
 70
     0
  9
$PUCSORGTOP
 10
0.0
 20
0.0
 30
0.0
  9
$PUCSORGBOTTOM
 10
0.0
 20
0.0
 30
0.0
  9
$PUCSORGLEFT
 10
0.0
 20
0.0
 30
0.0
  9
$PUCSORGRIGHT
 10
0.0
 20
0.0
 30
0.0
  9
$PUCSORGFRONT
 10
0.0
 20
0.0
 30
0.0
  9
$PUCSORGBACK
 10
0.0
 20
0.0
 30
0.0
  9
$USERI1
 70
     0
  9
$USERI2
 70
     0
  9
$USERI3
 70
     0
  9
$USERI4
 70
     0
  9
$USERI5
 70
     0
  9
$USERR1
 40
0.0
  9
$USERR2
 40
0.0
  9
$USERR3
 40
0.0
  9
$USERR4
 40
0.0
  9
$USERR5
 40
0.0
  9
$WORLDVIEW
 70
     1
  9
$SHADEDGE
 70
     3
  9
$SHADEDIF
 70
    70
  9
$TILEMODE
 70
     1
  9
$MAXACTVP
 70
    64
  9
$PINSBASE
 10
0.0
 20
0.0
 30
0.0
  9
$PLIMCHECK
 70
     0
  9
$PEXTMIN
 10
1.000000000000000E+20
 20
1.000000000000000E+20
 30
1.000000000000000E+20
  9
$PEXTMAX
 10
-1.000000000000000E+20
 20
-1.000000000000000E+20
 30
-1.000000000000000E+20
  9
$PLIMMIN
 10
0.0
 20
0.0
  9
$PLIMMAX
 10
12.0
 20
9.0
  9
$UNITMODE
 70
     0
  9
$VISRETAIN
 70
     1
  9
$PLINEGEN
 70
     0
  9
$PSLTSCALE
 70
     1
  9
$TREEDEPTH
 70
  3020
  9
$CMLSTYLE
  2
Standard
  9
$CMLJUST
 70
     0
  9
$CMLSCALE
 40
1.0
  9
$PROXYGRAPHICS
 70
     1
  9
$MEASUREMENT
 70
     0
  9
$CELWEIGHT
370
    -1
  9
$ENDCAPS
280
     0
  9
$JOINSTYLE
280
     0
  9
$LWDISPLAY
290
     0
  9
$INSUNITS
 70
     0
  9
$HYPERLINKBASE
  1

  9
$STYLESHEET
  1

  9
$XEDIT
290
     1
  9
$CEPSNTYPE
380
     0
  9
$PSTYLEMODE
290
     1
  9
$FINGERPRINTGUID
  2
{914303FE-B0B0-4057-9B7F-4540F7404414}
  9
$VERSIONGUID
  2
{5A86EA09-F343-40AD-B2AA-727C2B754543}
  9
$EXTNAMES
290
     1
  9
$PSVPSCALE
 40
0.0
  9
$OLESTARTUP
290
     0
  0
ENDSEC
  0
SECTION
  2
CLASSES
  0
CLASS
  1
ACDBDICTIONARYWDFLT
  2
AcDbDictionaryWithDefault
  3
ObjectDBX Classes
 90
        0
280
     0
281
     0
  0
CLASS
  1
MATERIAL
  2
AcDbMaterial
  3
ObjectDBX Classes
 90
     1153
280
     0
281
     0
  0
CLASS
  1
VISUALSTYLE
  2
AcDbVisualStyle
  3
ObjectDBX Classes
 90
     4095
280
     0
281
     0
  0
CLASS
  1
SCALE
  2
AcDbScale
  3
ObjectDBX Classes
 90
     1153
280
     0
281
     0
  0
CLASS
  1
TABLESTYLE
  2
AcDbTableStyle
  3
ObjectDBX Classes
 90
     4095
280
     0
281
     0
  0
CLASS
  1
MLEADERSTYLE
  2
AcDbMLeaderStyle
  3
ACDB_MLEADERSTYLE_CLASS
 90
     4095
280
     0
281
     0
  0
CLASS
  1
ACDBSECTIONVIEWSTYLE
  2
AcDbSectionViewStyle
  3
ObjectDBX Classes
 90
     1025
280
     0
281
     0
  0
CLASS
  1
ACDBDETAILVIEWSTYLE
  2
AcDbDetailViewStyle
  3
ObjectDBX Classes
 90
     1025
280
     0
281
     0
  0
CLASS
  1
DICTIONARYVAR
  2
AcDbDictionaryVar
  3
ObjectDBX Classes
 90
        0
280
     0
281
     0
  0
CLASS
  1
CELLSTYLEMAP
  2
AcDbCellStyleMap
  3
ObjectDBX Classes
 90
     1152
280
     0
281
     0
  0
CLASS
  1
ACDBPLACEHOLDER
  2
AcDbPlaceHolder
  3
ObjectDBX Classes
 90
        0
280
     0
281
     0
  0
CLASS
  1
LAYOUT
  2
AcDbLayout
  3
ObjectDBX Classes
 90
        0
280
     0
281
     0
  0
ENDSEC
  0
SECTION
  2
TABLES
  0
TABLE
  2
VPORT
  5
8
102
{ACAD_XDICTIONARY
360
302
102
}
330
0
100
AcDbSymbolTable
 70
     1
  0
VPORT
  5
7C
330
8
100
AcDbSymbolTableRecord
100
AcDbViewportTableRecord
  2
*Active
 70
     0
 10
0.0
 20
0.0
 11
1.0
 21
1.0
 12
296580.0
 22
697750.7475052203
 13
0.0
 23
0.0
 14
1.0
 24
1.0
 15
0.0
 25
0.0
 16
0.0
 26
0.0
 36
1.0
 17
0.0
 27
0.0
 37
0.0
 40
151.2402753869801
 41
3.038049940546967
 42
50.0
 43
0.0
 44
0.0
 50
0.0
 51
0.0
 71
     0
 72
   100
 73
     1
 74
     1
 75
     0
 76
     0
 77
     0
 78
     0
281
     0
 65
     1
110
0.0
120
0.0
130
0.0
111
1.0
121
0.0
131
0.0
112
0.0
122
1.0
132
0.0
 79
     0
146
0.0
1001
ACAD_NAV_VCDISPLAY
1070
     3
  0
ENDTAB
  0
TABLE
  2
LTYPE
  5
5
330
0
100
AcDbSymbolTable
 70
     2
  0
LTYPE
  5
5A
330
5
100
AcDbSymbolTableRecord
100
AcDbLinetypeTableRecord
  2
ByBlock
 70
     0
  3

 72
    65
 73
     0
 40
0.0
  0
LTYPE
  5
5B
330
5
100
AcDbSymbolTableRecord
100
AcDbLinetypeTableRecord
  2
ByLayer
 70
     0
  3

 72
    65
 73
     0
 40
0.0
  0
LTYPE
  5
5C
330
5
100
AcDbSymbolTableRecord
100
AcDbLinetypeTableRecord
  2
Continuous
 70
     0
  3
Solid line
 72
    65
 73
     0
 40
0.0
  0
LTYPE
  5
68
330
5
100
AcDbSymbolTableRecord
100
AcDbLinetypeTableRecord
  2
PHANTOM2
 70
     0
  3
___ _ _ ___ _ _ ___ _ _ ___ _ _
 72
    65
 73
     6
 40
1.25
 49
0.625
 74
     0
 49
-0.125
 74
     0
 49
0.125
 74
     0
 49
-0.125
 74
     0
 49
0.125
 74
     0
 49
-0.125
 74
     0
  0
ENDTAB
  0
TABLE
  2
LAYER
  5
2
330
0
100
AcDbSymbolTable
 70
    12
  0
LAYER
  5
54
102
{ACAD_XDICTIONARY
360
2A7
102
}
330
2
100
AcDbSymbolTableRecord
100
AcDbLayerTableRecord
  2
0
 70
     0
 62
     7
  6
Continuous
370
    -3
390
F
  0
LAYER
  5
74
102
{ACAD_XDICTIONARY
360
2A9
102
}
330
2
100
AcDbSymbolTableRecord
100
AcDbLayerTableRecord
  2
02_-_GENERAL_FEATURE
 70
     0
 62
     7
  6
Continuous
370
    -3
390
F
  0
LAYER
  5
75
102
{ACAD_XDICTIONARY
360
2AB
102
}
330
2
100
AcDbSymbolTableRecord
100
AcDbLayerTableRecord
  2
07_-_PATH
 70
     0
 62
     7
  6
Continuous
370
    -3
390
F
  0
LAYER
  5
76
102
{ACAD_XDICTIONARY
360
2AD
102
}
330
2
100
AcDbSymbolTableRecord
100
AcDbLayerTableRecord
  2
16_-_INLAND_WATER
 70
     0
 62
     5
  6
Continuous
370
    -3
390
F
  0
LAYER
  5
77
102
{ACAD_XDICTIONARY
360
2AF
102
}
330
2
100
AcDbSymbolTableRecord
100
AcDbLayerTableRecord
  2
22_-_ROAD_OR_TRACK
 70
     0
 62
     7
  6
Continuous
370
    -3
390
F
  0
LAYER
  5
78
102
{ACAD_XDICTIONARY
360
2B1
102
}
330
2
100
AcDbSymbolTableRecord
100
AcDbLayerTableRecord
  2
24_-_BUILDINGS_OR_STRUCTURE
 70
     0
 62
     7
  6
Continuous
370
    -3
390
F
  0
LAYER
  5
79
102
{ACAD_XDICTIONARY
360
2B3
102
}
330
2
100
AcDbSymbolTableRecord
100
AcDbLayerTableRecord
  2
25_-_BUILDING
 70
     0
 62
    10
  6
Continuous
370
    -3
390
F
  0
LAYER
  5
7A
102
{ACAD_XDICTIONARY
360
2B5
102
}
330
2
100
AcDbSymbolTableRecord
100
AcDbLayerTableRecord
  2
MM_FRAME
 70
     0
 62
     6
  6
Continuous
370
    -3
390
F
  0
LAYER
  5
340
102
{ACAD_XDICTIONARY
360
341
102
}
330
2
100
AcDbSymbolTableRecord
100
AcDbLayerTableRecord
  2
MM_DTM
 70
     0
 62
     7
  6
Continuous
370
    -3
390
F
  0
LAYER
  5
342
102
{ACAD_XDICTIONARY
360
343
102
}
330
2
100
AcDbSymbolTableRecord
100
AcDbLayerTableRecord
  2
MM_DTM_TEXT
 70
     0
 62
     5
  6
Continuous
370
    -3
390
F
  0
LAYER
  5
690
102
{ACAD_XDICTIONARY
360
691
102
}
330
2
100
AcDbSymbolTableRecord
100
AcDbLayerTableRecord
  2
MM_CONTOUR
 70
     0
 62
     1
  6
Continuous
370
    -3
390
F
  0
LAYER
  5
692
102
{ACAD_XDICTIONARY
360
693
102
}
330
2
100
AcDbSymbolTableRecord
100
AcDbLayerTableRecord
  2
MM_CONTOUR_TEXT
 70
     0
 62
    12
  6
Continuous
370
    -3
390
F
  0
ENDTAB
  0
TABLE
  2
STYLE
  5
3
330
0
100
AcDbSymbolTable
 70
     2
  0
STYLE
  5
55
330
3
100
AcDbSymbolTableRecord
100
AcDbTextStyleTableRecord
  2
Standard
 70
     0
 40
0.0
 41
1.0
 50
0.0
 71
     0
 42
0.2
  3
txt
  4

  0
STYLE
  5
59
330
3
100
AcDbSymbolTableRecord
100
AcDbTextStyleTableRecord
  2
Annotative
 70
     0
 40
0.0
 41
1.0
 50
0.0
 71
     0
 42
0.2
  3
txt
  4

1001
AcadAnnotative
1000
AnnotativeData
1002
{
1070
     1
1070
     1
1002
}
  0
ENDTAB
  0
TABLE
  2
VIEW
  5
6
330
0
100
AcDbSymbolTable
 70
     0
  0
ENDTAB
  0
TABLE
  2
UCS
  5
7
330
0
100
AcDbSymbolTable
 70
     0
  0
ENDTAB
  0
TABLE
  2
APPID
  5
9
330
0
100
AcDbSymbolTable
 70
     5
  0
APPID
  5
56
330
9
100
AcDbSymbolTableRecord
100
AcDbRegAppTableRecord
  2
ACAD
 70
     0
  0
APPID
  5
5D
330
9
100
AcDbSymbolTableRecord
100
AcDbRegAppTableRecord
  2
AcadAnnotative
 70
     0
  0
APPID
  5
2A4
330
9
100
AcDbSymbolTableRecord
100
AcDbRegAppTableRecord
  2
ACAD_EXEMPT_FROM_CAD_STANDARDS
 70
     0
  0
APPID
  5
2A6
330
9
100
AcDbSymbolTableRecord
100
AcDbRegAppTableRecord
  2
ACAD_NAV_VCDISPLAY
 70
     0
  0
APPID
  5
338
330
9
100
AcDbSymbolTableRecord
100
AcDbRegAppTableRecord
  2
ACAD_MLEADERVER
 70
     0
  0
ENDTAB
  0
TABLE
  2
DIMSTYLE
  5
A
330
0
100
AcDbSymbolTable
 70
     2
100
AcDbDimStyleTable
 71
     0
  0
DIMSTYLE
105
57
330
A
100
AcDbSymbolTableRecord
100
AcDbDimStyleTableRecord
  2
Standard
 70
     0
340
55
  0
DIMSTYLE
105
58
330
A
100
AcDbSymbolTableRecord
100
AcDbDimStyleTableRecord
  2
Annotative
 70
     0
340
55
1001
AcadAnnotative
1000
AnnotativeData
1002
{
1070
     1
1070
     1
1002
}
  0
ENDTAB
  0
TABLE
  2
BLOCK_RECORD
  5
1
330
0
100
AcDbSymbolTable
 70
     2
  0
BLOCK_RECORD
  5
70
330
1
100
AcDbSymbolTableRecord
100
AcDbBlockTableRecord
  2
*Model_Space
340
73
  0
BLOCK_RECORD
  5
6C
330
1
100
AcDbSymbolTableRecord
100
AcDbBlockTableRecord
  2
*Paper_Space
340
6F
  0
BLOCK_RECORD
  5
344
330
1
100
AcDbSymbolTableRecord
100
AcDbBlockTableRecord
  2
Sample - dtm - dwg
340
0
102
{BLKREFS
331
68F
102
}
  0
BLOCK_RECORD
  5
694
330
1
100
AcDbSymbolTableRecord
100
AcDbBlockTableRecord
  2
Sample - 2m contours - dwg
340
0
102
{BLKREFS
331
6A7
102
}
  0
ENDTAB
  0
ENDSEC
  0
SECTION
  2
BLOCKS
  0
BLOCK
  5
71
330
70
100
AcDbEntity
  8
0
100
AcDbBlockBegin
  2
*Model_Space
 70
     0
 10
0.0
 20
0.0
 30
0.0
  3
*Model_Space
  1

  0
ENDBLK
  5
72
330
70
100
AcDbEntity
  8
0
100
AcDbBlockEnd
  0
BLOCK
  5
6D
330
6C
100
AcDbEntity
 67
     1
  8
0
100
AcDbBlockBegin
  2
*Paper_Space
 70
     0
 10
0.0
 20
0.0
 30
0.0
  3
*Paper_Space
  1

  0
ENDBLK
  5
6E
330
6C
100
AcDbEntity
 67
     1
  8
0
100
AcDbBlockEnd
  0
BLOCK
  5
68D
330
344
100
AcDbEntity
  8
0
100
AcDbBlockBegin
  2
Sample - dtm - dwg
 70
     0
 10
0.0
 20
0.0
 30
0.0
  3
Sample - dtm - dwg
  1

  0
POINT
  5
345
330
344
100
AcDbEntity
  8
MM_DTM
100
AcDbPoint
 10
296530.0
 20
697695.0
 30
36.66
  0
TEXT
  5
346
330
344
100
AcDbEntity
  8
MM_DTM_TEXT
100
AcDbText
 10
296530.0
 20
697695.8
 30
0.0
 40
0.6600000000000001
  1
36.66
100
AcDbText
  0
POINT
  5
347
330
344
100
AcDbEntity
  8
MM_DTM
100
AcDbPoint
 10
296535.0
 20
697695.0
 30
36.6
  0
TEXT
  5
348
330
344
100
AcDbEntity
  8
MM_DTM_TEXT
100
AcDbText
 10
296535.0
 20
697695.8
 30
0.0
 40
0.6600000000000001
  1
36.60
100
AcDbText
  0
POINT
  5
349
330
344
100
AcDbEntity
  8
MM_DTM
100
AcDbPoint
 10
296540.0
 20
697695.0
 30
36.53
  0
TEXT
  5
34A
330
344
100
AcDbEntity
  8
MM_DTM_TEXT
100
AcDbText
 10
296540.0
 20
697695.8
 30
0.0
 40
0.6600000000000001
  1
36.53
100
AcDbText
  0
POINT
  5
34B
330
344
100
AcDbEntity
  8
MM_DTM
100
AcDbPoint
 10
296545.0
 20
697695.0
 30
36.47
  0
TEXT
  5
34C
330
344
100
AcDbEntity
  8
MM_DTM_TEXT
100
AcDbText
 10
296545.0
 20
697695.8
 30
0.0
 40
0.6600000000000001
  1
36.47
100
AcDbText
  0
POINT
  5
34D
330
344
100
AcDbEntity
  8
MM_DTM
100
AcDbPoint
 10
296550.0
 20
697695.0
 30
36.41
  0
TEXT
  5
34E
330
344
100
AcDbEntity
  8
MM_DTM_TEXT
100
AcDbText
 10
296550.0
 20
697695.8
 30
0.0
 40
0.6600000000000001
  1
36.41
100
AcDbText
  0
POINT
  5
34F
330
344
100
AcDbEntity
  8
MM_DTM
100
AcDbPoint
 10
296555.0
 20
697695.0
 30
36.47
  0
TEXT
  5
350
330
344
100
AcDbEntity
  8
MM_DTM_TEXT
100
AcDbText
 10
296555.0
 20
697695.8
 30
0.0
 40
0.6600000000000001
  1
36.47
100
AcDbText
  0
POINT
  5
351
330
344
100
AcDbEntity
  8
MM_DTM
100
AcDbPoint
 10
296560.0
 20
697695.0
 30
37.01
  0
TEXT
  5
352
330
344
100
AcDbEntity
  8
MM_DTM_TEXT
100
AcDbText
 10
296560.0
 20
697695.8
 30
0.0
 40
0.6600000000000001
  1
37.01
100
AcDbText
  0
POINT
  5
353
330
344
100
AcDbEntity
  8
MM_DTM
100
AcDbPoint
 10
296565.0
 20
697695.0
 30
38.43
  0
TEXT
  5
354
330
344
100
AcDbEntity
  8
MM_DTM_TEXT
100
AcDbText
 10
296565.0
 20
697695.8
 30
0.0
 40
0.6600000000000001
  1
38.43
100
AcDbText
  0
POINT
  5
355
330
344
100
AcDbEntity
  8
MM_DTM
100
AcDbPoint
 10
296570.0
 20
697695.0
 30
38.4
  0
TEXT
  5
356
330
344
100
AcDbEntity
  8
MM_DTM_TEXT
100
AcDbText
 10
296570.0
 20
697695.8
 30
0.0
 40
0.6600000000000001
  1
38.40
100
AcDbText
  0
POINT
  5
357
330
344
100
AcDbEntity
  8
MM_DTM
100
AcDbPoint
 10
296575.0
 20
697695.0
 30
38.28
  0
TEXT
  5
358
330
344
100
AcDbEntity
  8
MM_DTM_TEXT
100
AcDbText
 10
296575.0
 20
697695.8
 30
0.0
 40
0.6600000000000001
  1
38.28
100
AcDbText
  0
POINT
  5
359
330
344
100
AcDbEntity
  8
MM_DTM
100
AcDbPoint
 10
296580.0
 20
697695.0
 30
38.15
  0
TEXT
  5
35A
330
344
100
AcDbEntity
  8
MM_DTM_TEXT
100
AcDbText
 10
296580.0
 20
697695.8
 30
0.0
 40
0.6600000000000001
  1
38.15
100
AcDbText
  0
POINT
  5
35B
330
344
100
AcDbEntity
  8
MM_DTM
100
AcDbPoint
 10
296585.0
 20
697695.0
 30
38.02000000000001
  0
TEXT
  5
35C
330
344
100
AcDbEntity
  8
MM_DTM_TEXT
100
AcDbText
 10
296585.0
 20
697695.8
 30
0.0
 40
0.6600000000000001
  1
38.02
100
AcDbText
  0
POINT
  5
35D
330
344
100
AcDbEntity
  8
MM_DTM
100
AcDbPoint
 10
296590.0
 20
697695.0
 30
37.9
  0
TEXT
  5
35E
330
344
100
AcDbEntity
  8
MM_DTM_TEXT
100
AcDbText
 10
296590.0
 20
697695.8
 30
0.0
 40
0.6600000000000001
  1
37.90
100
AcDbText
  0
POINT
  5
35F
330
344
100
AcDbEntity
  8
MM_DTM
100
AcDbPoint
 10
296595.0
 20
697695.0
 30
37.02
  0
TEXT
  5
360
330
344
100
AcDbEntity
  8
MM_DTM_TEXT
100
AcDbText
 10
296595.0
 20
697695.8
 30
0.0
 40
0.6600000000000001
  1
37.02
100
AcDbText
  0
POINT
  5
361
330
344
100
AcDbEntity
  8
MM_DTM
100
AcDbPoint
 10
296600.0
 20
697695.0
 30
36.82
  0
TEXT
  5
362
330
344
100
AcDbEntity
  8
MM_DTM_TEXT
100
AcDbText
 10
296600.0
 20
697695.8
 30
0.0
 40
0.6600000000000001
  1
36.82
100
AcDbText
  0
POINT
  5
363
330
344
100
AcDbEntity
  8
MM_DTM
100
AcDbPoint
 10
296605.0
 20
697695.0
 30
36.72
  0
TEXT
  5
364
330
344
100
AcDbEntity
  8
MM_DTM_TEXT
100
AcDbText
 10
296605.0
 20
697695.8
 30
0.0
 40
0.6600000000000001
  1
36.72
100
AcDbText
  0
POINT
  5
365
330
344
100
AcDbEntity
  8
MM_DTM
100
AcDbPoint
 10
296610.0
 20
697695.0
 30
36.63
  0
TEXT
  5
366
330
344
100
AcDbEntity
  8
MM_DTM_TEXT
100
AcDbText
 10
296610.0
 20
697695.8
 30
0.0
 40
0.6600000000000001
  1
36.63
100
AcDbText
  0
POINT
  5
367
330
344
100
AcDbEntity
  8
MM_DTM
100
AcDbPoint
 10
296615.0
 20
697695.0
 30
37.25
  0
TEXT
  5
368
330
344
100
AcDbEntity
  8
MM_DTM_TEXT
100
AcDbText
 10
296615.0
 20
697695.8
 30
0.0
 40
0.6600000000000001
  1
37.25
100
AcDbText
  0
POINT
  5
369
330
344
100
AcDbEntity
  8
MM_DTM
100
AcDbPoint
 10
296620.0
 20
697695.0
 30
37.87
  0
TEXT
  5
36A
330
344
100
AcDbEntity
  8
MM_DTM_TEXT
100
AcDbText
 10
296620.0
 20
697695.8
 30
0.0
 40
0.6600000000000001
  1
37.87
100
AcDbText
  0
POINT
  5
36B
330
344
100
AcDbEntity
  8
MM_DTM
100
AcDbPoint
 10
296625.0
 20
697695.0
 30
38.49
  0
TEXT
  5
36C
330
344
100
AcDbEntity
  8
MM_DTM_TEXT
100
AcDbText
 10
296625.0
 20
697695.8
 30
0.0
 40
0.6600000000000001
  1
38.49
100
AcDbText
  0
POINT
  5
36D
330
344
100
AcDbEntity
  8
MM_DTM
100
AcDbPoint
 10
296630.0
 20
697695.0
 30
38.67
  0
TEXT
  5
36E
330
344
100
AcDbEntity
  8
MM_DTM_TEXT
100
AcDbText
 10
296630.0
 20
697695.8
 30
0.0
 40
0.6600000000000001
  1
38.67
100
AcDbText
  0
POINT
  5
36F
330
344
100
AcDbEntity
  8
MM_DTM
100
AcDbPoint
 10
296530.0
 20
697700.0
 30
36.76
  0
TEXT
  5
370
330
344
100
AcDbEntity
  8
MM_DTM_TEXT
100
AcDbText
 10
296530.0
 20
697700.8000000001
 30
0.0
 40
0.6600000000000001
  1
36.76
100
AcDbText
  0
POINT
  5
371
330
344
100
AcDbEntity
  8
MM_DTM
100
AcDbPoint
 10
296535.0
 20
697700.0
 30
36.7
  0
TEXT
  5
372
330
344
100
AcDbEntity
  8
MM_DTM_TEXT
100
AcDbText
 10
296535.0
 20
697700.8000000001
 30
0.0
 40
0.6600000000000001
  1
36.70
100
AcDbText
  0
POINT
  5
373
330
344
100
AcDbEntity
  8
MM_DTM
100
AcDbPoint
 10
296540.0
 20
697700.0
 30
36.64
  0
TEXT
  5
374
330
344
100
AcDbEntity
  8
MM_DTM_TEXT
100
AcDbText
 10
296540.0
 20
697700.8000000001
 30
0.0
 40
0.6600000000000001
  1
36.64
100
AcDbText
  0
POINT
  5
375
330
344
100
AcDbEntity
  8
MM_DTM
100
AcDbPoint
 10
296545.0
 20
697700.0
 30
36.58
  0
TEXT
  5
376
330
344
100
AcDbEntity
  8
MM_DTM_TEXT
100
AcDbText
 10
296545.0
 20
697700.8000000001
 30
0.0
 40
0.6600000000000001
  1
36.58
100
AcDbText
  0
POINT
  5
377
330
344
100
AcDbEntity
  8
MM_DTM
100
AcDbPoint
 10
296550.0
 20
697700.0
 30
36.59000000000001
  0
TEXT
  5
378
330
344
100
AcDbEntity
  8
MM_DTM_TEXT
100
AcDbText
 10
296550.0
 20
697700.8000000001
 30
0.0
 40
0.6600000000000001
  1
36.59
100
AcDbText
  0
POINT
  5
379
330
344
100
AcDbEntity
  8
MM_DTM
100
AcDbPoint
 10
296555.0
 20
697700.0
 30
36.82
  0
TEXT
  5
37A
330
344
100
AcDbEntity
  8
MM_DTM_TEXT
100
AcDbText
 10
296555.0
 20
697700.8000000001
 30
0.0
 40
0.6600000000000001
  1
36.82
100
AcDbText
  0
POINT
  5
37B
330
344
100
AcDbEntity
  8
MM_DTM
100
AcDbPoint
 10
296560.0
 20
697700.0
 30
37.38
  0
TEXT
  5
37C
330
344
100
AcDbEntity
  8
MM_DTM_TEXT
100
AcDbText
 10
296560.0
 20
697700.8000000001
 30
0.0
 40
0.6600000000000001
  1
37.38
100
AcDbText
  0
POINT
  5
37D
330
344
100
AcDbEntity
  8
MM_DTM
100
AcDbPoint
 10
296565.0
 20
697700.0
 30
38.13
  0
TEXT
  5
37E
330
344
100
AcDbEntity
  8
MM_DTM_TEXT
100
AcDbText
 10
296565.0
 20
697700.8000000001
 30
0.0
 40
0.6600000000000001
  1
38.13
100
AcDbText
  0
POINT
  5
37F
330
344
100
AcDbEntity
  8
MM_DTM
100
AcDbPoint
 10
296570.0
 20
697700.0
 30
38.41
  0
TEXT
  5
380
330
344
100
AcDbEntity
  8
MM_DTM_TEXT
100
AcDbText
 10
296570.0
 20
697700.8000000001
 30
0.0
 40
0.6600000000000001
  1
38.41
100
AcDbText
  0
POINT
  5
381
330
344
100
AcDbEntity
  8
MM_DTM
100
AcDbPoint
 10
296575.0
 20
697700.0
 30
38.28
  0
TEXT
  5
382
330
344
100
AcDbEntity
  8
MM_DTM_TEXT
100
AcDbText
 10
296575.0
 20
697700.8000000001
 30
0.0
 40
0.6600000000000001
  1
38.28
100
AcDbText
  0
POINT
  5
383
330
344
100
AcDbEntity
  8
MM_DTM
100
AcDbPoint
 10
296580.0
 20
697700.0
 30
38.15
  0
TEXT
  5
384
330
344
100
AcDbEntity
  8
MM_DTM_TEXT
100
AcDbText
 10
296580.0
 20
697700.8000000001
 30
0.0
 40
0.6600000000000001
  1
38.15
100
AcDbText
  0
POINT
  5
385
330
344
100
AcDbEntity
  8
MM_DTM
100
AcDbPoint
 10
296585.0
 20
697700.0
 30
38.03
  0
TEXT
  5
386
330
344
100
AcDbEntity
  8
MM_DTM_TEXT
100
AcDbText
 10
296585.0
 20
697700.8000000001
 30
0.0
 40
0.6600000000000001
  1
38.03
100
AcDbText
  0
POINT
  5
387
330
344
100
AcDbEntity
  8
MM_DTM
100
AcDbPoint
 10
296590.0
 20
697700.0
 30
37.6
  0
TEXT
  5
388
330
344
100
AcDbEntity
  8
MM_DTM_TEXT
100
AcDbText
 10
296590.0
 20
697700.8000000001
 30
0.0
 40
0.6600000000000001
  1
37.60
100
AcDbText
  0
POINT
  5
389
330
344
100
AcDbEntity
  8
MM_DTM
100
AcDbPoint
 10
296595.0
 20
697700.0
 30
37.14
  0
TEXT
  5
38A
330
344
100
AcDbEntity
  8
MM_DTM_TEXT
100
AcDbText
 10
296595.0
 20
697700.8000000001
 30
0.0
 40
0.6600000000000001
  1
37.14
100
AcDbText
  0
POINT
  5
38B
330
344
100
AcDbEntity
  8
MM_DTM
100
AcDbPoint
 10
296600.0
 20
697700.0
 30
37.04
  0
TEXT
  5
38C
330
344
100
AcDbEntity
  8
MM_DTM_TEXT
100
AcDbText
 10
296600.0
 20
697700.8000000001
 30
0.0
 40
0.6600000000000001
  1
37.04
100
AcDbText
  0
POINT
  5
38D
330
344
100
AcDbEntity
  8
MM_DTM
100
AcDbPoint
 10
296605.0
 20
697700.0
 30
36.93
  0
TEXT
  5
38E
330
344
100
AcDbEntity
  8
MM_DTM_TEXT
100
AcDbText
 10
296605.0
 20
697700.8000000001
 30
0.0
 40
0.6600000000000001
  1
36.93
100
AcDbText
  0
POINT
  5
38F
330
344
100
AcDbEntity
  8
MM_DTM
100
AcDbPoint
 10
296610.0
 20
697700.0
 30
36.83
  0
TEXT
  5
390
330
344
100
AcDbEntity
  8
MM_DTM_TEXT
100
AcDbText
 10
296610.0
 20
697700.8000000001
 30
0.0
 40
0.6600000000000001
  1
36.83
100
AcDbText
  0
POINT
  5
391
330
344
100
AcDbEntity
  8
MM_DTM
100
AcDbPoint
 10
296615.0
 20
697700.0
 30
37.01
  0
TEXT
  5
392
330
344
100
AcDbEntity
  8
MM_DTM_TEXT
100
AcDbText
 10
296615.0
 20
697700.8000000001
 30
0.0
 40
0.6600000000000001
  1
37.01
100
AcDbText
  0
POINT
  5
393
330
344
100
AcDbEntity
  8
MM_DTM
100
AcDbPoint
 10
296620.0
 20
697700.0
 30
37.63
  0
TEXT
  5
394
330
344
100
AcDbEntity
  8
MM_DTM_TEXT
100
AcDbText
 10
296620.0
 20
697700.8000000001
 30
0.0
 40
0.6600000000000001
  1
37.63
100
AcDbText
  0
POINT
  5
395
330
344
100
AcDbEntity
  8
MM_DTM
100
AcDbPoint
 10
296625.0
 20
697700.0
 30
38.25
  0
TEXT
  5
396
330
344
100
AcDbEntity
  8
MM_DTM_TEXT
100
AcDbText
 10
296625.0
 20
697700.8000000001
 30
0.0
 40
0.6600000000000001
  1
38.25
100
AcDbText
  0
POINT
  5
397
330
344
100
AcDbEntity
  8
MM_DTM
100
AcDbPoint
 10
296630.0
 20
697700.0
 30
38.61
  0
TEXT
  5
398
330
344
100
AcDbEntity
  8
MM_DTM_TEXT
100
AcDbText
 10
296630.0
 20
697700.8000000001
 30
0.0
 40
0.6600000000000001
  1
38.61
100
AcDbText
  0
POINT
  5
399
330
344
100
AcDbEntity
  8
MM_DTM
100
AcDbPoint
 10
296530.0
 20
697705.0
 30
36.87
  0
TEXT
  5
39A
330
344
100
AcDbEntity
  8
MM_DTM_TEXT
100
AcDbText
 10
296530.0
 20
697705.8000000001
 30
0.0
 40
0.6600000000000001
  1
36.87
100
AcDbText
  0
POINT
  5
39B
330
344
100
AcDbEntity
  8
MM_DTM
100
AcDbPoint
 10
296535.0
 20
697705.0
 30
36.81
  0
TEXT
  5
39C
330
344
100
AcDbEntity
  8
MM_DTM_TEXT
100
AcDbText
 10
296535.0
 20
697705.8000000001
 30
0.0
 40
0.6600000000000001
  1
36.81
100
AcDbText
  0
POINT
  5
39D
330
344
100
AcDbEntity
  8
MM_DTM
100
AcDbPoint
 10
296540.0
 20
697705.0
 30
36.75
  0
TEXT
  5
39E
330
344
100
AcDbEntity
  8
MM_DTM_TEXT
100
AcDbText
 10
296540.0
 20
697705.8000000001
 30
0.0
 40
0.6600000000000001
  1
36.75
100
AcDbText
  0
POINT
  5
39F
330
344
100
AcDbEntity
  8
MM_DTM
100
AcDbPoint
 10
296545.0
 20
697705.0
 30
36.71
  0
TEXT
  5
3A0
330
344
100
AcDbEntity
  8
MM_DTM_TEXT
100
AcDbText
 10
296545.0
 20
697705.8000000001
 30
0.0
 40
0.6600000000000001
  1
36.71
100
AcDbText
  0
POINT
  5
3A1
330
344
100
AcDbEntity
  8
MM_DTM
100
AcDbPoint
 10
296550.0
 20
697705.0
 30
36.84000000000001
  0
TEXT
  5
3A2
330
344
100
AcDbEntity
  8
MM_DTM_TEXT
100
AcDbText
 10
296550.0
 20
697705.8000000001
 30
0.0
 40
0.6600000000000001
  1
36.84
100
AcDbText
  0
POINT
  5
3A3
330
344
100
AcDbEntity
  8
MM_DTM
100
AcDbPoint
 10
296555.0
 20
697705.0
 30
37.19
  0
TEXT
  5
3A4
330
344
100
AcDbEntity
  8
MM_DTM_TEXT
100
AcDbText
 10
296555.0
 20
697705.8000000001
 30
0.0
 40
0.6600000000000001
  1
37.19
100
AcDbText
  0
POINT
  5
3A5
330
344
100
AcDbEntity
  8
MM_DTM
100
AcDbPoint
 10
296560.0
 20
697705.0
 30
37.97
  0
TEXT
  5
3A6
330
344
100
AcDbEntity
  8
MM_DTM_TEXT
100
AcDbText
 10
296560.0
 20
697705.8000000001
 30
0.0
 40
0.6600000000000001
  1
37.97
100
AcDbText
  0
POINT
  5
3A7
330
344
100
AcDbEntity
  8
MM_DTM
100
AcDbPoint
 10
296565.0
 20
697705.0
 30
38.14
  0
TEXT
  5
3A8
330
344
100
AcDbEntity
  8
MM_DTM_TEXT
100
AcDbText
 10
296565.0
 20
697705.8000000001
 30
0.0
 40
0.6600000000000001
  1
38.14
100
AcDbText
  0
POINT
  5
3A9
330
344
100
AcDbEntity
  8
MM_DTM
100
AcDbPoint
 10
296570.0
 20
697705.0
 30
38.13
  0
TEXT
  5
3AA
330
344
100
AcDbEntity
  8
MM_DTM_TEXT
100
AcDbText
 10
296570.0
 20
697705.8000000001
 30
0.0
 40
0.6600000000000001
  1
38.13
100
AcDbText
  0
POINT
  5
3AB
330
344
100
AcDbEntity
  8
MM_DTM
100
AcDbPoint
 10
296575.0
 20
697705.0
 30
38.28
  0
TEXT
  5
3AC
330
344
100
AcDbEntity
  8
MM_DTM_TEXT
100
AcDbText
 10
296575.0
 20
697705.8000000001
 30
0.0
 40
0.6600000000000001
  1
38.28
100
AcDbText
  0
POINT
  5
3AD
330
344
100
AcDbEntity
  8
MM_DTM
100
AcDbPoint
 10
296580.0
 20
697705.0
 30
38.16
  0
TEXT
  5
3AE
330
344
100
AcDbEntity
  8
MM_DTM_TEXT
100
AcDbText
 10
296580.0
 20
697705.8000000001
 30
0.0
 40
0.6600000000000001
  1
38.16
100
AcDbText
  0
POINT
  5
3AF
330
344
100
AcDbEntity
  8
MM_DTM
100
AcDbPoint
 10
296585.0
 20
697705.0
 30
38.03
  0
TEXT
  5
3B0
330
344
100
AcDbEntity
  8
MM_DTM_TEXT
100
AcDbText
 10
296585.0
 20
697705.8000000001
 30
0.0
 40
0.6600000000000001
  1
38.03
100
AcDbText
  0
POINT
  5
3B1
330
344
100
AcDbEntity
  8
MM_DTM
100
AcDbPoint
 10
296590.0
 20
697705.0
 30
37.47
  0
TEXT
  5
3B2
330
344
100
AcDbEntity
  8
MM_DTM_TEXT
100
AcDbText
 10
296590.0
 20
697705.8000000001
 30
0.0
 40
0.6600000000000001
  1
37.47
100
AcDbText
  0
POINT
  5
3B3
330
344
100
AcDbEntity
  8
MM_DTM
100
AcDbPoint
 10
296595.0
 20
697705.0
 30
37.36
  0
TEXT
  5
3B4
330
344
100
AcDbEntity
  8
MM_DTM_TEXT
100
AcDbText
 10
296595.0
 20
697705.8000000001
 30
0.0
 40
0.6600000000000001
  1
37.36
100
AcDbText
  0
POINT
  5
3B5
330
344
100
AcDbEntity
  8
MM_DTM
100
AcDbPoint
 10
296600.0
 20
697705.0
 30
37.26
  0
TEXT
  5
3B6
330
344
100
AcDbEntity
  8
MM_DTM_TEXT
100
AcDbText
 10
296600.0
 20
697705.8000000001
 30
0.0
 40
0.6600000000000001
  1
37.26
100
AcDbText
  0
POINT
  5
3B7
330
344
100
AcDbEntity
  8
MM_DTM
100
AcDbPoint
 10
296605.0
 20
697705.0
 30
37.15
  0
TEXT
  5
3B8
330
344
100
AcDbEntity
  8
MM_DTM_TEXT
100
AcDbText
 10
296605.0
 20
697705.8000000001
 30
0.0
 40
0.6600000000000001
  1
37.15
100
AcDbText
  0
POINT
  5
3B9
330
344
100
AcDbEntity
  8
MM_DTM
100
AcDbPoint
 10
296610.0
 20
697705.0
 30
37.05
  0
TEXT
  5
3BA
330
344
100
AcDbEntity
  8
MM_DTM_TEXT
100
AcDbText
 10
296610.0
 20
697705.8000000001
 30
0.0
 40
0.6600000000000001
  1
37.05
100
AcDbText
  0
POINT
  5
3BB
330
344
100
AcDbEntity
  8
MM_DTM
100
AcDbPoint
 10
296615.0
 20
697705.0
 30
36.94
  0
TEXT
  5
3BC
330
344
100
AcDbEntity
  8
MM_DTM_TEXT
100
AcDbText
 10
296615.0
 20
697705.8000000001
 30
0.0
 40
0.6600000000000001
  1
36.94
100
AcDbText
  0
POINT
  5
3BD
330
344
100
AcDbEntity
  8
MM_DTM
100
AcDbPoint
 10
296620.0
 20
697705.0
 30
37.4
  0
TEXT
  5
3BE
330
344
100
AcDbEntity
  8
MM_DTM_TEXT
100
AcDbText
 10
296620.0
 20
697705.8000000001
 30
0.0
 40
0.6600000000000001
  1
37.40
100
AcDbText
  0
POINT
  5
3BF
330
344
100
AcDbEntity
  8
MM_DTM
100
AcDbPoint
 10
296625.0
 20
697705.0
 30
38.02000000000001
  0
TEXT
  5
3C0
330
344
100
AcDbEntity
  8
MM_DTM_TEXT
100
AcDbText
 10
296625.0
 20
697705.8000000001
 30
0.0
 40
0.6600000000000001
  1
38.02
100
AcDbText
  0
POINT
  5
3C1
330
344
100
AcDbEntity
  8
MM_DTM
100
AcDbPoint
 10
296630.0
 20
697705.0
 30
38.51
  0
TEXT
  5
3C2
330
344
100
AcDbEntity
  8
MM_DTM_TEXT
100
AcDbText
 10
296630.0
 20
697705.8000000001
 30
0.0
 40
0.6600000000000001
  1
38.51
100
AcDbText
  0
POINT
  5
3C3
330
344
100
AcDbEntity
  8
MM_DTM
100
AcDbPoint
 10
296530.0
 20
697710.0
 30
37.0
  0
TEXT
  5
3C4
330
344
100
AcDbEntity
  8
MM_DTM_TEXT
100
AcDbText
 10
296530.0
 20
697710.8000000001
 30
0.0
 40
0.6600000000000001
  1
37.00
100
AcDbText
  0
POINT
  5
3C5
330
344
100
AcDbEntity
  8
MM_DTM
100
AcDbPoint
 10
296535.0
 20
697710.0
 30
36.92
  0
TEXT
  5
3C6
330
344
100
AcDbEntity
  8
MM_DTM_TEXT
100
AcDbText
 10
296535.0
 20
697710.8000000001
 30
0.0
 40
0.6600000000000001
  1
36.92
100
AcDbText
  0
POINT
  5
3C7
330
344
100
AcDbEntity
  8
MM_DTM
100
AcDbPoint
 10
296540.0
 20
697710.0
 30
36.85
  0
TEXT
  5
3C8
330
344
100
AcDbEntity
  8
MM_DTM_TEXT
100
AcDbText
 10
296540.0
 20
697710.8000000001
 30
0.0
 40
0.6600000000000001
  1
36.85
100
AcDbText
  0
POINT
  5
3C9
330
344
100
AcDbEntity
  8
MM_DTM
100
AcDbPoint
 10
296545.0
 20
697710.0
 30
36.96
  0
TEXT
  5
3CA
330
344
100
AcDbEntity
  8
MM_DTM_TEXT
100
AcDbText
 10
296545.0
 20
697710.8000000001
 30
0.0
 40
0.6600000000000001
  1
36.96
100
AcDbText
  0
POINT
  5
3CB
330
344
100
AcDbEntity
  8
MM_DTM
100
AcDbPoint
 10
296550.0
 20
697710.0
 30
37.09
  0
TEXT
  5
3CC
330
344
100
AcDbEntity
  8
MM_DTM_TEXT
100
AcDbText
 10
296550.0
 20
697710.8000000001
 30
0.0
 40
0.6600000000000001
  1
37.09
100
AcDbText
  0
POINT
  5
3CD
330
344
100
AcDbEntity
  8
MM_DTM
100
AcDbPoint
 10
296555.0
 20
697710.0
 30
38.23
  0
TEXT
  5
3CE
330
344
100
AcDbEntity
  8
MM_DTM_TEXT
100
AcDbText
 10
296555.0
 20
697710.8000000001
 30
0.0
 40
0.6600000000000001
  1
38.23
100
AcDbText
  0
POINT
  5
3CF
330
344
100
AcDbEntity
  8
MM_DTM
100
AcDbPoint
 10
296560.0
 20
697710.0
 30
39.37
  0
TEXT
  5
3D0
330
344
100
AcDbEntity
  8
MM_DTM_TEXT
100
AcDbText
 10
296560.0
 20
697710.8000000001
 30
0.0
 40
0.6600000000000001
  1
39.37
100
AcDbText
  0
POINT
  5
3D1
330
344
100
AcDbEntity
  8
MM_DTM
100
AcDbPoint
 10
296565.0
 20
697710.0
 30
38.97
  0
TEXT
  5
3D2
330
344
100
AcDbEntity
  8
MM_DTM_TEXT
100
AcDbText
 10
296565.0
 20
697710.8000000001
 30
0.0
 40
0.6600000000000001
  1
38.97
100
AcDbText
  0
POINT
  5
3D3
330
344
100
AcDbEntity
  8
MM_DTM
100
AcDbPoint
 10
296570.0
 20
697710.0
 30
38.4
  0
TEXT
  5
3D4
330
344
100
AcDbEntity
  8
MM_DTM_TEXT
100
AcDbText
 10
296570.0
 20
697710.8000000001
 30
0.0
 40
0.6600000000000001
  1
38.40
100
AcDbText
  0
POINT
  5
3D5
330
344
100
AcDbEntity
  8
MM_DTM
100
AcDbPoint
 10
296575.0
 20
697710.0
 30
38.14
  0
TEXT
  5
3D6
330
344
100
AcDbEntity
  8
MM_DTM_TEXT
100
AcDbText
 10
296575.0
 20
697710.8000000001
 30
0.0
 40
0.6600000000000001
  1
38.14
100
AcDbText
  0
POINT
  5
3D7
330
344
100
AcDbEntity
  8
MM_DTM
100
AcDbPoint
 10
296580.0
 20
697710.0
 30
38.16
  0
TEXT
  5
3D8
330
344
100
AcDbEntity
  8
MM_DTM_TEXT
100
AcDbText
 10
296580.0
 20
697710.8000000001
 30
0.0
 40
0.6600000000000001
  1
38.16
100
AcDbText
  0
POINT
  5
3D9
330
344
100
AcDbEntity
  8
MM_DTM
100
AcDbPoint
 10
296585.0
 20
697710.0
 30
37.84000000000001
  0
TEXT
  5
3DA
330
344
100
AcDbEntity
  8
MM_DTM_TEXT
100
AcDbText
 10
296585.0
 20
697710.8000000001
 30
0.0
 40
0.6600000000000001
  1
37.84
100
AcDbText
  0
POINT
  5
3DB
330
344
100
AcDbEntity
  8
MM_DTM
100
AcDbPoint
 10
296590.0
 20
697710.0
 30
37.69
  0
TEXT
  5
3DC
330
344
100
AcDbEntity
  8
MM_DTM_TEXT
100
AcDbText
 10
296590.0
 20
697710.8000000001
 30
0.0
 40
0.6600000000000001
  1
37.69
100
AcDbText
  0
POINT
  5
3DD
330
344
100
AcDbEntity
  8
MM_DTM
100
AcDbPoint
 10
296595.0
 20
697710.0
 30
37.58
  0
TEXT
  5
3DE
330
344
100
AcDbEntity
  8
MM_DTM_TEXT
100
AcDbText
 10
296595.0
 20
697710.8000000001
 30
0.0
 40
0.6600000000000001
  1
37.58
100
AcDbText
  0
POINT
  5
3DF
330
344
100
AcDbEntity
  8
MM_DTM
100
AcDbPoint
 10
296600.0
 20
697710.0
 30
37.48
  0
TEXT
  5
3E0
330
344
100
AcDbEntity
  8
MM_DTM_TEXT
100
AcDbText
 10
296600.0
 20
697710.8000000001
 30
0.0
 40
0.6600000000000001
  1
37.48
100
AcDbText
  0
POINT
  5
3E1
330
344
100
AcDbEntity
  8
MM_DTM
100
AcDbPoint
 10
296605.0
 20
697710.0
 30
37.37
  0
TEXT
  5
3E2
330
344
100
AcDbEntity
  8
MM_DTM_TEXT
100
AcDbText
 10
296605.0
 20
697710.8000000001
 30
0.0
 40
0.6600000000000001
  1
37.37
100
AcDbText
  0
POINT
  5
3E3
330
344
100
AcDbEntity
  8
MM_DTM
100
AcDbPoint
 10
296610.0
 20
697710.0
 30
37.27
  0
TEXT
  5
3E4
330
344
100
AcDbEntity
  8
MM_DTM_TEXT
100
AcDbText
 10
296610.0
 20
697710.8000000001
 30
0.0
 40
0.6600000000000001
  1
37.27
100
AcDbText
  0
POINT
  5
3E5
330
344
100
AcDbEntity
  8
MM_DTM
100
AcDbPoint
 10
296615.0
 20
697710.0
 30
37.16
  0
TEXT
  5
3E6
330
344
100
AcDbEntity
  8
MM_DTM_TEXT
100
AcDbText
 10
296615.0
 20
697710.8000000001
 30
0.0
 40
0.6600000000000001
  1
37.16
100
AcDbText
  0
POINT
  5
3E7
330
344
100
AcDbEntity
  8
MM_DTM
100
AcDbPoint
 10
296620.0
 20
697710.0
 30
37.17
  0
TEXT
  5
3E8
330
344
100
AcDbEntity
  8
MM_DTM_TEXT
100
AcDbText
 10
296620.0
 20
697710.8000000001
 30
0.0
 40
0.6600000000000001
  1
37.17
100
AcDbText
  0
POINT
  5
3E9
330
344
100
AcDbEntity
  8
MM_DTM
100
AcDbPoint
 10
296625.0
 20
697710.0
 30
37.77000000000001
  0
TEXT
  5
3EA
330
344
100
AcDbEntity
  8
MM_DTM_TEXT
100
AcDbText
 10
296625.0
 20
697710.8000000001
 30
0.0
 40
0.6600000000000001
  1
37.77
100
AcDbText
  0
POINT
  5
3EB
330
344
100
AcDbEntity
  8
MM_DTM
100
AcDbPoint
 10
296630.0
 20
697710.0
 30
38.28
  0
TEXT
  5
3EC
330
344
100
AcDbEntity
  8
MM_DTM_TEXT
100
AcDbText
 10
296630.0
 20
697710.8000000001
 30
0.0
 40
0.6600000000000001
  1
38.28
100
AcDbText
  0
POINT
  5
3ED
330
344
100
AcDbEntity
  8
MM_DTM
100
AcDbPoint
 10
296530.0
 20
697715.0
 30
37.15
  0
TEXT
  5
3EE
330
344
100
AcDbEntity
  8
MM_DTM_TEXT
100
AcDbText
 10
296530.0
 20
697715.8000000001
 30
0.0
 40
0.6600000000000001
  1
37.15
100
AcDbText
  0
POINT
  5
3EF
330
344
100
AcDbEntity
  8
MM_DTM
100
AcDbPoint
 10
296535.0
 20
697715.0
 30
37.09
  0
TEXT
  5
3F0
330
344
100
AcDbEntity
  8
MM_DTM_TEXT
100
AcDbText
 10
296535.0
 20
697715.8000000001
 30
0.0
 40
0.6600000000000001
  1
37.09
100
AcDbText
  0
POINT
  5
3F1
330
344
100
AcDbEntity
  8
MM_DTM
100
AcDbPoint
 10
296540.0
 20
697715.0
 30
37.02
  0
TEXT
  5
3F2
330
344
100
AcDbEntity
  8
MM_DTM_TEXT
100
AcDbText
 10
296540.0
 20
697715.8000000001
 30
0.0
 40
0.6600000000000001
  1
37.02
100
AcDbText
  0
POINT
  5
3F3
330
344
100
AcDbEntity
  8
MM_DTM
100
AcDbPoint
 10
296545.0
 20
697715.0
 30
37.62
  0
TEXT
  5
3F4
330
344
100
AcDbEntity
  8
MM_DTM_TEXT
100
AcDbText
 10
296545.0
 20
697715.8000000001
 30
0.0
 40
0.6600000000000001
  1
37.62
100
AcDbText
  0
POINT
  5
3F5
330
344
100
AcDbEntity
  8
MM_DTM
100
AcDbPoint
 10
296550.0
 20
697715.0
 30
38.27
  0
TEXT
  5
3F6
330
344
100
AcDbEntity
  8
MM_DTM_TEXT
100
AcDbText
 10
296550.0
 20
697715.8000000001
 30
0.0
 40
0.6600000000000001
  1
38.27
100
AcDbText
  0
POINT
  5
3F7
330
344
100
AcDbEntity
  8
MM_DTM
100
AcDbPoint
 10
296555.0
 20
697715.0
 30
38.93
  0
TEXT
  5
3F8
330
344
100
AcDbEntity
  8
MM_DTM_TEXT
100
AcDbText
 10
296555.0
 20
697715.8000000001
 30
0.0
 40
0.6600000000000001
  1
38.93
100
AcDbText
  0
POINT
  5
3F9
330
344
100
AcDbEntity
  8
MM_DTM
100
AcDbPoint
 10
296560.0
 20
697715.0
 30
39.32
  0
TEXT
  5
3FA
330
344
100
AcDbEntity
  8
MM_DTM_TEXT
100
AcDbText
 10
296560.0
 20
697715.8000000001
 30
0.0
 40
0.6600000000000001
  1
39.32
100
AcDbText
  0
POINT
  5
3FB
330
344
100
AcDbEntity
  8
MM_DTM
100
AcDbPoint
 10
296565.0
 20
697715.0
 30
39.7
  0
TEXT
  5
3FC
330
344
100
AcDbEntity
  8
MM_DTM_TEXT
100
AcDbText
 10
296565.0
 20
697715.8000000001
 30
0.0
 40
0.6600000000000001
  1
39.70
100
AcDbText
  0
POINT
  5
3FD
330
344
100
AcDbEntity
  8
MM_DTM
100
AcDbPoint
 10
296570.0
 20
697715.0
 30
39.2
  0
TEXT
  5
3FE
330
344
100
AcDbEntity
  8
MM_DTM_TEXT
100
AcDbText
 10
296570.0
 20
697715.8000000001
 30
0.0
 40
0.6600000000000001
  1
39.20
100
AcDbText
  0
POINT
  5
3FF
330
344
100
AcDbEntity
  8
MM_DTM
100
AcDbPoint
 10
296575.0
 20
697715.0
 30
38.65
  0
TEXT
  5
400
330
344
100
AcDbEntity
  8
MM_DTM_TEXT
100
AcDbText
 10
296575.0
 20
697715.8000000001
 30
0.0
 40
0.6600000000000001
  1
38.65
100
AcDbText
  0
POINT
  5
401
330
344
100
AcDbEntity
  8
MM_DTM
100
AcDbPoint
 10
296580.0
 20
697715.0
 30
38.14
  0
TEXT
  5
402
330
344
100
AcDbEntity
  8
MM_DTM_TEXT
100
AcDbText
 10
296580.0
 20
697715.8000000001
 30
0.0
 40
0.6600000000000001
  1
38.14
100
AcDbText
  0
POINT
  5
403
330
344
100
AcDbEntity
  8
MM_DTM
100
AcDbPoint
 10
296585.0
 20
697715.0
 30
38.01
  0
TEXT
  5
404
330
344
100
AcDbEntity
  8
MM_DTM_TEXT
100
AcDbText
 10
296585.0
 20
697715.8000000001
 30
0.0
 40
0.6600000000000001
  1
38.01
100
AcDbText
  0
POINT
  5
405
330
344
100
AcDbEntity
  8
MM_DTM
100
AcDbPoint
 10
296590.0
 20
697715.0
 30
37.9
  0
TEXT
  5
406
330
344
100
AcDbEntity
  8
MM_DTM_TEXT
100
AcDbText
 10
296590.0
 20
697715.8000000001
 30
0.0
 40
0.6600000000000001
  1
37.90
100
AcDbText
  0
POINT
  5
407
330
344
100
AcDbEntity
  8
MM_DTM
100
AcDbPoint
 10
296595.0
 20
697715.0
 30
37.8
  0
TEXT
  5
408
330
344
100
AcDbEntity
  8
MM_DTM_TEXT
100
AcDbText
 10
296595.0
 20
697715.8000000001
 30
0.0
 40
0.6600000000000001
  1
37.80
100
AcDbText
  0
POINT
  5
409
330
344
100
AcDbEntity
  8
MM_DTM
100
AcDbPoint
 10
296600.0
 20
697715.0
 30
37.69
  0
TEXT
  5
40A
330
344
100
AcDbEntity
  8
MM_DTM_TEXT
100
AcDbText
 10
296600.0
 20
697715.8000000001
 30
0.0
 40
0.6600000000000001
  1
37.69
100
AcDbText
  0
POINT
  5
40B
330
344
100
AcDbEntity
  8
MM_DTM
100
AcDbPoint
 10
296605.0
 20
697715.0
 30
37.59
  0
TEXT
  5
40C
330
344
100
AcDbEntity
  8
MM_DTM_TEXT
100
AcDbText
 10
296605.0
 20
697715.8000000001
 30
0.0
 40
0.6600000000000001
  1
37.59
100
AcDbText
  0
POINT
  5
40D
330
344
100
AcDbEntity
  8
MM_DTM
100
AcDbPoint
 10
296610.0
 20
697715.0
 30
37.48
  0
TEXT
  5
40E
330
344
100
AcDbEntity
  8
MM_DTM_TEXT
100
AcDbText
 10
296610.0
 20
697715.8000000001
 30
0.0
 40
0.6600000000000001
  1
37.48
100
AcDbText
  0
POINT
  5
40F
330
344
100
AcDbEntity
  8
MM_DTM
100
AcDbPoint
 10
296615.0
 20
697715.0
 30
37.38
  0
TEXT
  5
410
330
344
100
AcDbEntity
  8
MM_DTM_TEXT
100
AcDbText
 10
296615.0
 20
697715.8000000001
 30
0.0
 40
0.6600000000000001
  1
37.38
100
AcDbText
  0
POINT
  5
411
330
344
100
AcDbEntity
  8
MM_DTM
100
AcDbPoint
 10
296620.0
 20
697715.0
 30
37.28
  0
TEXT
  5
412
330
344
100
AcDbEntity
  8
MM_DTM_TEXT
100
AcDbText
 10
296620.0
 20
697715.8000000001
 30
0.0
 40
0.6600000000000001
  1
37.28
100
AcDbText
  0
POINT
  5
413
330
344
100
AcDbEntity
  8
MM_DTM
100
AcDbPoint
 10
296625.0
 20
697715.0
 30
37.51
  0
TEXT
  5
414
330
344
100
AcDbEntity
  8
MM_DTM_TEXT
100
AcDbText
 10
296625.0
 20
697715.8000000001
 30
0.0
 40
0.6600000000000001
  1
37.51
100
AcDbText
  0
POINT
  5
415
330
344
100
AcDbEntity
  8
MM_DTM
100
AcDbPoint
 10
296630.0
 20
697715.0
 30
38.02000000000001
  0
TEXT
  5
416
330
344
100
AcDbEntity
  8
MM_DTM_TEXT
100
AcDbText
 10
296630.0
 20
697715.8000000001
 30
0.0
 40
0.6600000000000001
  1
38.02
100
AcDbText
  0
POINT
  5
417
330
344
100
AcDbEntity
  8
MM_DTM
100
AcDbPoint
 10
296530.0
 20
697720.0
 30
37.38
  0
TEXT
  5
418
330
344
100
AcDbEntity
  8
MM_DTM_TEXT
100
AcDbText
 10
296530.0
 20
697720.8
 30
0.0
 40
0.6600000000000001
  1
37.38
100
AcDbText
  0
POINT
  5
419
330
344
100
AcDbEntity
  8
MM_DTM
100
AcDbPoint
 10
296535.0
 20
697720.0
 30
37.32
  0
TEXT
  5
41A
330
344
100
AcDbEntity
  8
MM_DTM_TEXT
100
AcDbText
 10
296535.0
 20
697720.8
 30
0.0
 40
0.6600000000000001
  1
37.32
100
AcDbText
  0
POINT
  5
41B
330
344
100
AcDbEntity
  8
MM_DTM
100
AcDbPoint
 10
296540.0
 20
697720.0
 30
37.25
  0
TEXT
  5
41C
330
344
100
AcDbEntity
  8
MM_DTM_TEXT
100
AcDbText
 10
296540.0
 20
697720.8
 30
0.0
 40
0.6600000000000001
  1
37.25
100
AcDbText
  0
POINT
  5
41D
330
344
100
AcDbEntity
  8
MM_DTM
100
AcDbPoint
 10
296545.0
 20
697720.0
 30
37.53
  0
TEXT
  5
41E
330
344
100
AcDbEntity
  8
MM_DTM_TEXT
100
AcDbText
 10
296545.0
 20
697720.8
 30
0.0
 40
0.6600000000000001
  1
37.53
100
AcDbText
  0
POINT
  5
41F
330
344
100
AcDbEntity
  8
MM_DTM
100
AcDbPoint
 10
296550.0
 20
697720.0
 30
38.18
  0
TEXT
  5
420
330
344
100
AcDbEntity
  8
MM_DTM_TEXT
100
AcDbText
 10
296550.0
 20
697720.8
 30
0.0
 40
0.6600000000000001
  1
38.18
100
AcDbText
  0
POINT
  5
421
330
344
100
AcDbEntity
  8
MM_DTM
100
AcDbPoint
 10
296555.0
 20
697720.0
 30
38.96
  0
TEXT
  5
422
330
344
100
AcDbEntity
  8
MM_DTM_TEXT
100
AcDbText
 10
296555.0
 20
697720.8
 30
0.0
 40
0.6600000000000001
  1
38.96
100
AcDbText
  0
POINT
  5
423
330
344
100
AcDbEntity
  8
MM_DTM
100
AcDbPoint
 10
296560.0
 20
697720.0
 30
39.51
  0
TEXT
  5
424
330
344
100
AcDbEntity
  8
MM_DTM_TEXT
100
AcDbText
 10
296560.0
 20
697720.8
 30
0.0
 40
0.6600000000000001
  1
39.51
100
AcDbText
  0
POINT
  5
425
330
344
100
AcDbEntity
  8
MM_DTM
100
AcDbPoint
 10
296565.0
 20
697720.0
 30
39.95
  0
TEXT
  5
426
330
344
100
AcDbEntity
  8
MM_DTM_TEXT
100
AcDbText
 10
296565.0
 20
697720.8
 30
0.0
 40
0.6600000000000001
  1
39.95
100
AcDbText
  0
POINT
  5
427
330
344
100
AcDbEntity
  8
MM_DTM
100
AcDbPoint
 10
296570.0
 20
697720.0
 30
39.45
  0
TEXT
  5
428
330
344
100
AcDbEntity
  8
MM_DTM_TEXT
100
AcDbText
 10
296570.0
 20
697720.8
 30
0.0
 40
0.6600000000000001
  1
39.45
100
AcDbText
  0
POINT
  5
429
330
344
100
AcDbEntity
  8
MM_DTM
100
AcDbPoint
 10
296575.0
 20
697720.0
 30
38.94
  0
TEXT
  5
42A
330
344
100
AcDbEntity
  8
MM_DTM_TEXT
100
AcDbText
 10
296575.0
 20
697720.8
 30
0.0
 40
0.6600000000000001
  1
38.94
100
AcDbText
  0
POINT
  5
42B
330
344
100
AcDbEntity
  8
MM_DTM
100
AcDbPoint
 10
296580.0
 20
697720.0
 30
38.66
  0
TEXT
  5
42C
330
344
100
AcDbEntity
  8
MM_DTM_TEXT
100
AcDbText
 10
296580.0
 20
697720.8
 30
0.0
 40
0.6600000000000001
  1
38.66
100
AcDbText
  0
POINT
  5
42D
330
344
100
AcDbEntity
  8
MM_DTM
100
AcDbPoint
 10
296585.0
 20
697720.0
 30
38.41
  0
TEXT
  5
42E
330
344
100
AcDbEntity
  8
MM_DTM_TEXT
100
AcDbText
 10
296585.0
 20
697720.8
 30
0.0
 40
0.6600000000000001
  1
38.41
100
AcDbText
  0
POINT
  5
42F
330
344
100
AcDbEntity
  8
MM_DTM
100
AcDbPoint
 10
296590.0
 20
697720.0
 30
38.2
  0
TEXT
  5
430
330
344
100
AcDbEntity
  8
MM_DTM_TEXT
100
AcDbText
 10
296590.0
 20
697720.8
 30
0.0
 40
0.6600000000000001
  1
38.20
100
AcDbText
  0
POINT
  5
431
330
344
100
AcDbEntity
  8
MM_DTM
100
AcDbPoint
 10
296595.0
 20
697720.0
 30
38.1
  0
TEXT
  5
432
330
344
100
AcDbEntity
  8
MM_DTM_TEXT
100
AcDbText
 10
296595.0
 20
697720.8
 30
0.0
 40
0.6600000000000001
  1
38.10
100
AcDbText
  0
POINT
  5
433
330
344
100
AcDbEntity
  8
MM_DTM
100
AcDbPoint
 10
296600.0
 20
697720.0
 30
38.0
  0
TEXT
  5
434
330
344
100
AcDbEntity
  8
MM_DTM_TEXT
100
AcDbText
 10
296600.0
 20
697720.8
 30
0.0
 40
0.6600000000000001
  1
38.00
100
AcDbText
  0
POINT
  5
435
330
344
100
AcDbEntity
  8
MM_DTM
100
AcDbPoint
 10
296605.0
 20
697720.0
 30
37.89
  0
TEXT
  5
436
330
344
100
AcDbEntity
  8
MM_DTM_TEXT
100
AcDbText
 10
296605.0
 20
697720.8
 30
0.0
 40
0.6600000000000001
  1
37.89
100
AcDbText
  0
POINT
  5
437
330
344
100
AcDbEntity
  8
MM_DTM
100
AcDbPoint
 10
296610.0
 20
697720.0
 30
37.79
  0
TEXT
  5
438
330
344
100
AcDbEntity
  8
MM_DTM_TEXT
100
AcDbText
 10
296610.0
 20
697720.8
 30
0.0
 40
0.6600000000000001
  1
37.79
100
AcDbText
  0
POINT
  5
439
330
344
100
AcDbEntity
  8
MM_DTM
100
AcDbPoint
 10
296615.0
 20
697720.0
 30
37.68
  0
TEXT
  5
43A
330
344
100
AcDbEntity
  8
MM_DTM_TEXT
100
AcDbText
 10
296615.0
 20
697720.8
 30
0.0
 40
0.6600000000000001
  1
37.68
100
AcDbText
  0
POINT
  5
43B
330
344
100
AcDbEntity
  8
MM_DTM
100
AcDbPoint
 10
296620.0
 20
697720.0
 30
37.58
  0
TEXT
  5
43C
330
344
100
AcDbEntity
  8
MM_DTM_TEXT
100
AcDbText
 10
296620.0
 20
697720.8
 30
0.0
 40
0.6600000000000001
  1
37.58
100
AcDbText
  0
POINT
  5
43D
330
344
100
AcDbEntity
  8
MM_DTM
100
AcDbPoint
 10
296625.0
 20
697720.0
 30
37.67
  0
TEXT
  5
43E
330
344
100
AcDbEntity
  8
MM_DTM_TEXT
100
AcDbText
 10
296625.0
 20
697720.8
 30
0.0
 40
0.6600000000000001
  1
37.67
100
AcDbText
  0
POINT
  5
43F
330
344
100
AcDbEntity
  8
MM_DTM
100
AcDbPoint
 10
296630.0
 20
697720.0
 30
37.77000000000001
  0
TEXT
  5
440
330
344
100
AcDbEntity
  8
MM_DTM_TEXT
100
AcDbText
 10
296630.0
 20
697720.8
 30
0.0
 40
0.6600000000000001
  1
37.77
100
AcDbText
  0
POINT
  5
441
330
344
100
AcDbEntity
  8
MM_DTM
100
AcDbPoint
 10
296530.0
 20
697725.0
 30
37.61
  0
TEXT
  5
442
330
344
100
AcDbEntity
  8
MM_DTM_TEXT
100
AcDbText
 10
296530.0
 20
697725.8
 30
0.0
 40
0.6600000000000001
  1
37.61
100
AcDbText
  0
POINT
  5
443
330
344
100
AcDbEntity
  8
MM_DTM
100
AcDbPoint
 10
296535.0
 20
697725.0
 30
37.55
  0
TEXT
  5
444
330
344
100
AcDbEntity
  8
MM_DTM_TEXT
100
AcDbText
 10
296535.0
 20
697725.8
 30
0.0
 40
0.6600000000000001
  1
37.55
100
AcDbText
  0
POINT
  5
445
330
344
100
AcDbEntity
  8
MM_DTM
100
AcDbPoint
 10
296540.0
 20
697725.0
 30
37.48
  0
TEXT
  5
446
330
344
100
AcDbEntity
  8
MM_DTM_TEXT
100
AcDbText
 10
296540.0
 20
697725.8
 30
0.0
 40
0.6600000000000001
  1
37.48
100
AcDbText
  0
POINT
  5
447
330
344
100
AcDbEntity
  8
MM_DTM
100
AcDbPoint
 10
296545.0
 20
697725.0
 30
37.52000000000001
  0
TEXT
  5
448
330
344
100
AcDbEntity
  8
MM_DTM_TEXT
100
AcDbText
 10
296545.0
 20
697725.8
 30
0.0
 40
0.6600000000000001
  1
37.52
100
AcDbText
  0
POINT
  5
449
330
344
100
AcDbEntity
  8
MM_DTM
100
AcDbPoint
 10
296550.0
 20
697725.0
 30
38.08
  0
TEXT
  5
44A
330
344
100
AcDbEntity
  8
MM_DTM_TEXT
100
AcDbText
 10
296550.0
 20
697725.8
 30
0.0
 40
0.6600000000000001
  1
38.08
100
AcDbText
  0
POINT
  5
44B
330
344
100
AcDbEntity
  8
MM_DTM
100
AcDbPoint
 10
296555.0
 20
697725.0
 30
39.0
  0
TEXT
  5
44C
330
344
100
AcDbEntity
  8
MM_DTM_TEXT
100
AcDbText
 10
296555.0
 20
697725.8
 30
0.0
 40
0.6600000000000001
  1
39.00
100
AcDbText
  0
POINT
  5
44D
330
344
100
AcDbEntity
  8
MM_DTM
100
AcDbPoint
 10
296560.0
 20
697725.0
 30
39.69
  0
TEXT
  5
44E
330
344
100
AcDbEntity
  8
MM_DTM_TEXT
100
AcDbText
 10
296560.0
 20
697725.8
 30
0.0
 40
0.6600000000000001
  1
39.69
100
AcDbText
  0
POINT
  5
44F
330
344
100
AcDbEntity
  8
MM_DTM
100
AcDbPoint
 10
296565.0
 20
697725.0
 30
40.2
  0
TEXT
  5
450
330
344
100
AcDbEntity
  8
MM_DTM_TEXT
100
AcDbText
 10
296565.0
 20
697725.8
 30
0.0
 40
0.6600000000000001
  1
40.20
100
AcDbText
  0
POINT
  5
451
330
344
100
AcDbEntity
  8
MM_DTM
100
AcDbPoint
 10
296570.0
 20
697725.0
 30
39.76
  0
TEXT
  5
452
330
344
100
AcDbEntity
  8
MM_DTM_TEXT
100
AcDbText
 10
296570.0
 20
697725.8
 30
0.0
 40
0.6600000000000001
  1
39.76
100
AcDbText
  0
POINT
  5
453
330
344
100
AcDbEntity
  8
MM_DTM
100
AcDbPoint
 10
296575.0
 20
697725.0
 30
39.51
  0
TEXT
  5
454
330
344
100
AcDbEntity
  8
MM_DTM_TEXT
100
AcDbText
 10
296575.0
 20
697725.8
 30
0.0
 40
0.6600000000000001
  1
39.51
100
AcDbText
  0
POINT
  5
455
330
344
100
AcDbEntity
  8
MM_DTM
100
AcDbPoint
 10
296580.0
 20
697725.0
 30
39.27000000000001
  0
TEXT
  5
456
330
344
100
AcDbEntity
  8
MM_DTM_TEXT
100
AcDbText
 10
296580.0
 20
697725.8
 30
0.0
 40
0.6600000000000001
  1
39.27
100
AcDbText
  0
POINT
  5
457
330
344
100
AcDbEntity
  8
MM_DTM
100
AcDbPoint
 10
296585.0
 20
697725.0
 30
39.02000000000001
  0
TEXT
  5
458
330
344
100
AcDbEntity
  8
MM_DTM_TEXT
100
AcDbText
 10
296585.0
 20
697725.8
 30
0.0
 40
0.6600000000000001
  1
39.02
100
AcDbText
  0
POINT
  5
459
330
344
100
AcDbEntity
  8
MM_DTM
100
AcDbPoint
 10
296590.0
 20
697725.0
 30
38.77000000000001
  0
TEXT
  5
45A
330
344
100
AcDbEntity
  8
MM_DTM_TEXT
100
AcDbText
 10
296590.0
 20
697725.8
 30
0.0
 40
0.6600000000000001
  1
38.77
100
AcDbText
  0
POINT
  5
45B
330
344
100
AcDbEntity
  8
MM_DTM
100
AcDbPoint
 10
296595.0
 20
697725.0
 30
38.51
  0
TEXT
  5
45C
330
344
100
AcDbEntity
  8
MM_DTM_TEXT
100
AcDbText
 10
296595.0
 20
697725.8
 30
0.0
 40
0.6600000000000001
  1
38.51
100
AcDbText
  0
POINT
  5
45D
330
344
100
AcDbEntity
  8
MM_DTM
100
AcDbPoint
 10
296600.0
 20
697725.0
 30
38.32
  0
TEXT
  5
45E
330
344
100
AcDbEntity
  8
MM_DTM_TEXT
100
AcDbText
 10
296600.0
 20
697725.8
 30
0.0
 40
0.6600000000000001
  1
38.32
100
AcDbText
  0
POINT
  5
45F
330
344
100
AcDbEntity
  8
MM_DTM
100
AcDbPoint
 10
296605.0
 20
697725.0
 30
38.22
  0
TEXT
  5
460
330
344
100
AcDbEntity
  8
MM_DTM_TEXT
100
AcDbText
 10
296605.0
 20
697725.8
 30
0.0
 40
0.6600000000000001
  1
38.22
100
AcDbText
  0
POINT
  5
461
330
344
100
AcDbEntity
  8
MM_DTM
100
AcDbPoint
 10
296610.0
 20
697725.0
 30
38.11
  0
TEXT
  5
462
330
344
100
AcDbEntity
  8
MM_DTM_TEXT
100
AcDbText
 10
296610.0
 20
697725.8
 30
0.0
 40
0.6600000000000001
  1
38.11
100
AcDbText
  0
POINT
  5
463
330
344
100
AcDbEntity
  8
MM_DTM
100
AcDbPoint
 10
296615.0
 20
697725.0
 30
38.01
  0
TEXT
  5
464
330
344
100
AcDbEntity
  8
MM_DTM_TEXT
100
AcDbText
 10
296615.0
 20
697725.8
 30
0.0
 40
0.6600000000000001
  1
38.01
100
AcDbText
  0
POINT
  5
465
330
344
100
AcDbEntity
  8
MM_DTM
100
AcDbPoint
 10
296620.0
 20
697725.0
 30
38.11
  0
TEXT
  5
466
330
344
100
AcDbEntity
  8
MM_DTM_TEXT
100
AcDbText
 10
296620.0
 20
697725.8
 30
0.0
 40
0.6600000000000001
  1
38.11
100
AcDbText
  0
POINT
  5
467
330
344
100
AcDbEntity
  8
MM_DTM
100
AcDbPoint
 10
296625.0
 20
697725.0
 30
38.29
  0
TEXT
  5
468
330
344
100
AcDbEntity
  8
MM_DTM_TEXT
100
AcDbText
 10
296625.0
 20
697725.8
 30
0.0
 40
0.6600000000000001
  1
38.29
100
AcDbText
  0
POINT
  5
469
330
344
100
AcDbEntity
  8
MM_DTM
100
AcDbPoint
 10
296630.0
 20
697725.0
 30
37.57
  0
TEXT
  5
46A
330
344
100
AcDbEntity
  8
MM_DTM_TEXT
100
AcDbText
 10
296630.0
 20
697725.8
 30
0.0
 40
0.6600000000000001
  1
37.57
100
AcDbText
  0
POINT
  5
46B
330
344
100
AcDbEntity
  8
MM_DTM
100
AcDbPoint
 10
296530.0
 20
697730.0
 30
37.83
  0
TEXT
  5
46C
330
344
100
AcDbEntity
  8
MM_DTM_TEXT
100
AcDbText
 10
296530.0
 20
697730.8
 30
0.0
 40
0.6600000000000001
  1
37.83
100
AcDbText
  0
POINT
  5
46D
330
344
100
AcDbEntity
  8
MM_DTM
100
AcDbPoint
 10
296535.0
 20
697730.0
 30
37.77000000000001
  0
TEXT
  5
46E
330
344
100
AcDbEntity
  8
MM_DTM_TEXT
100
AcDbText
 10
296535.0
 20
697730.8
 30
0.0
 40
0.6600000000000001
  1
37.77
100
AcDbText
  0
POINT
  5
46F
330
344
100
AcDbEntity
  8
MM_DTM
100
AcDbPoint
 10
296540.0
 20
697730.0
 30
37.7
  0
TEXT
  5
470
330
344
100
AcDbEntity
  8
MM_DTM_TEXT
100
AcDbText
 10
296540.0
 20
697730.8
 30
0.0
 40
0.6600000000000001
  1
37.70
100
AcDbText
  0
POINT
  5
471
330
344
100
AcDbEntity
  8
MM_DTM
100
AcDbPoint
 10
296545.0
 20
697730.0
 30
37.58
  0
TEXT
  5
472
330
344
100
AcDbEntity
  8
MM_DTM_TEXT
100
AcDbText
 10
296545.0
 20
697730.8
 30
0.0
 40
0.6600000000000001
  1
37.58
100
AcDbText
  0
POINT
  5
473
330
344
100
AcDbEntity
  8
MM_DTM
100
AcDbPoint
 10
296550.0
 20
697730.0
 30
37.99
  0
TEXT
  5
474
330
344
100
AcDbEntity
  8
MM_DTM_TEXT
100
AcDbText
 10
296550.0
 20
697730.8
 30
0.0
 40
0.6600000000000001
  1
37.99
100
AcDbText
  0
POINT
  5
475
330
344
100
AcDbEntity
  8
MM_DTM
100
AcDbPoint
 10
296555.0
 20
697730.0
 30
39.03
  0
TEXT
  5
476
330
344
100
AcDbEntity
  8
MM_DTM_TEXT
100
AcDbText
 10
296555.0
 20
697730.8
 30
0.0
 40
0.6600000000000001
  1
39.03
100
AcDbText
  0
POINT
  5
477
330
344
100
AcDbEntity
  8
MM_DTM
100
AcDbPoint
 10
296560.0
 20
697730.0
 30
40.95
  0
TEXT
  5
478
330
344
100
AcDbEntity
  8
MM_DTM_TEXT
100
AcDbText
 10
296560.0
 20
697730.8
 30
0.0
 40
0.6600000000000001
  1
40.95
100
AcDbText
  0
POINT
  5
479
330
344
100
AcDbEntity
  8
MM_DTM
100
AcDbPoint
 10
296565.0
 20
697730.0
 30
40.60999999999999
  0
TEXT
  5
47A
330
344
100
AcDbEntity
  8
MM_DTM_TEXT
100
AcDbText
 10
296565.0
 20
697730.8
 30
0.0
 40
0.6600000000000001
  1
40.61
100
AcDbText
  0
POINT
  5
47B
330
344
100
AcDbEntity
  8
MM_DTM
100
AcDbPoint
 10
296570.0
 20
697730.0
 30
40.36
  0
TEXT
  5
47C
330
344
100
AcDbEntity
  8
MM_DTM_TEXT
100
AcDbText
 10
296570.0
 20
697730.8
 30
0.0
 40
0.6600000000000001
  1
40.36
100
AcDbText
  0
POINT
  5
47D
330
344
100
AcDbEntity
  8
MM_DTM
100
AcDbPoint
 10
296575.0
 20
697730.0
 30
40.11999999999999
  0
TEXT
  5
47E
330
344
100
AcDbEntity
  8
MM_DTM_TEXT
100
AcDbText
 10
296575.0
 20
697730.8
 30
0.0
 40
0.6600000000000001
  1
40.12
100
AcDbText
  0
POINT
  5
47F
330
344
100
AcDbEntity
  8
MM_DTM
100
AcDbPoint
 10
296580.0
 20
697730.0
 30
39.88
  0
TEXT
  5
480
330
344
100
AcDbEntity
  8
MM_DTM_TEXT
100
AcDbText
 10
296580.0
 20
697730.8
 30
0.0
 40
0.6600000000000001
  1
39.88
100
AcDbText
  0
POINT
  5
481
330
344
100
AcDbEntity
  8
MM_DTM
100
AcDbPoint
 10
296585.0
 20
697730.0
 30
39.64
  0
TEXT
  5
482
330
344
100
AcDbEntity
  8
MM_DTM_TEXT
100
AcDbText
 10
296585.0
 20
697730.8
 30
0.0
 40
0.6600000000000001
  1
39.64
100
AcDbText
  0
POINT
  5
483
330
344
100
AcDbEntity
  8
MM_DTM
100
AcDbPoint
 10
296590.0
 20
697730.0
 30
39.38
  0
TEXT
  5
484
330
344
100
AcDbEntity
  8
MM_DTM_TEXT
100
AcDbText
 10
296590.0
 20
697730.8
 30
0.0
 40
0.6600000000000001
  1
39.38
100
AcDbText
  0
POINT
  5
485
330
344
100
AcDbEntity
  8
MM_DTM
100
AcDbPoint
 10
296595.0
 20
697730.0
 30
39.12
  0
TEXT
  5
486
330
344
100
AcDbEntity
  8
MM_DTM_TEXT
100
AcDbText
 10
296595.0
 20
697730.8
 30
0.0
 40
0.6600000000000001
  1
39.12
100
AcDbText
  0
POINT
  5
487
330
344
100
AcDbEntity
  8
MM_DTM
100
AcDbPoint
 10
296600.0
 20
697730.0
 30
38.86
  0
TEXT
  5
488
330
344
100
AcDbEntity
  8
MM_DTM_TEXT
100
AcDbText
 10
296600.0
 20
697730.8
 30
0.0
 40
0.6600000000000001
  1
38.86
100
AcDbText
  0
POINT
  5
489
330
344
100
AcDbEntity
  8
MM_DTM
100
AcDbPoint
 10
296605.0
 20
697730.0
 30
38.6
  0
TEXT
  5
48A
330
344
100
AcDbEntity
  8
MM_DTM_TEXT
100
AcDbText
 10
296605.0
 20
697730.8
 30
0.0
 40
0.6600000000000001
  1
38.60
100
AcDbText
  0
POINT
  5
48B
330
344
100
AcDbEntity
  8
MM_DTM
100
AcDbPoint
 10
296610.0
 20
697730.0
 30
38.43
  0
TEXT
  5
48C
330
344
100
AcDbEntity
  8
MM_DTM_TEXT
100
AcDbText
 10
296610.0
 20
697730.8
 30
0.0
 40
0.6600000000000001
  1
38.43
100
AcDbText
  0
POINT
  5
48D
330
344
100
AcDbEntity
  8
MM_DTM
100
AcDbPoint
 10
296615.0
 20
697730.0
 30
38.47
  0
TEXT
  5
48E
330
344
100
AcDbEntity
  8
MM_DTM_TEXT
100
AcDbText
 10
296615.0
 20
697730.8
 30
0.0
 40
0.6600000000000001
  1
38.47
100
AcDbText
  0
POINT
  5
48F
330
344
100
AcDbEntity
  8
MM_DTM
100
AcDbPoint
 10
296620.0
 20
697730.0
 30
38.65
  0
TEXT
  5
490
330
344
100
AcDbEntity
  8
MM_DTM_TEXT
100
AcDbText
 10
296620.0
 20
697730.8
 30
0.0
 40
0.6600000000000001
  1
38.65
100
AcDbText
  0
POINT
  5
491
330
344
100
AcDbEntity
  8
MM_DTM
100
AcDbPoint
 10
296625.0
 20
697730.0
 30
38.84
  0
TEXT
  5
492
330
344
100
AcDbEntity
  8
MM_DTM_TEXT
100
AcDbText
 10
296625.0
 20
697730.8
 30
0.0
 40
0.6600000000000001
  1
38.84
100
AcDbText
  0
POINT
  5
493
330
344
100
AcDbEntity
  8
MM_DTM
100
AcDbPoint
 10
296630.0
 20
697730.0
 30
38.74
  0
TEXT
  5
494
330
344
100
AcDbEntity
  8
MM_DTM_TEXT
100
AcDbText
 10
296630.0
 20
697730.8
 30
0.0
 40
0.6600000000000001
  1
38.74
100
AcDbText
  0
POINT
  5
495
330
344
100
AcDbEntity
  8
MM_DTM
100
AcDbPoint
 10
296530.0
 20
697735.0
 30
38.06
  0
TEXT
  5
496
330
344
100
AcDbEntity
  8
MM_DTM_TEXT
100
AcDbText
 10
296530.0
 20
697735.8000000001
 30
0.0
 40
0.6600000000000001
  1
38.06
100
AcDbText
  0
POINT
  5
497
330
344
100
AcDbEntity
  8
MM_DTM
100
AcDbPoint
 10
296535.0
 20
697735.0
 30
38.0
  0
TEXT
  5
498
330
344
100
AcDbEntity
  8
MM_DTM_TEXT
100
AcDbText
 10
296535.0
 20
697735.8000000001
 30
0.0
 40
0.6600000000000001
  1
38.00
100
AcDbText
  0
POINT
  5
499
330
344
100
AcDbEntity
  8
MM_DTM
100
AcDbPoint
 10
296540.0
 20
697735.0
 30
37.93
  0
TEXT
  5
49A
330
344
100
AcDbEntity
  8
MM_DTM_TEXT
100
AcDbText
 10
296540.0
 20
697735.8000000001
 30
0.0
 40
0.6600000000000001
  1
37.93
100
AcDbText
  0
POINT
  5
49B
330
344
100
AcDbEntity
  8
MM_DTM
100
AcDbPoint
 10
296545.0
 20
697735.0
 30
37.81000000000001
  0
TEXT
  5
49C
330
344
100
AcDbEntity
  8
MM_DTM_TEXT
100
AcDbText
 10
296545.0
 20
697735.8000000001
 30
0.0
 40
0.6600000000000001
  1
37.81
100
AcDbText
  0
POINT
  5
49D
330
344
100
AcDbEntity
  8
MM_DTM
100
AcDbPoint
 10
296550.0
 20
697735.0
 30
38.25
  0
TEXT
  5
49E
330
344
100
AcDbEntity
  8
MM_DTM_TEXT
100
AcDbText
 10
296550.0
 20
697735.8000000001
 30
0.0
 40
0.6600000000000001
  1
38.25
100
AcDbText
  0
POINT
  5
49F
330
344
100
AcDbEntity
  8
MM_DTM
100
AcDbPoint
 10
296555.0
 20
697735.0
 30
40.74
  0
TEXT
  5
4A0
330
344
100
AcDbEntity
  8
MM_DTM_TEXT
100
AcDbText
 10
296555.0
 20
697735.8000000001
 30
0.0
 40
0.6600000000000001
  1
40.74
100
AcDbText
  0
POINT
  5
4A1
330
344
100
AcDbEntity
  8
MM_DTM
100
AcDbPoint
 10
296560.0
 20
697735.0
 30
41.07999999999999
  0
TEXT
  5
4A2
330
344
100
AcDbEntity
  8
MM_DTM_TEXT
100
AcDbText
 10
296560.0
 20
697735.8000000001
 30
0.0
 40
0.6600000000000001
  1
41.08
100
AcDbText
  0
POINT
  5
4A3
330
344
100
AcDbEntity
  8
MM_DTM
100
AcDbPoint
 10
296565.0
 20
697735.0
 30
41.15999999999999
  0
TEXT
  5
4A4
330
344
100
AcDbEntity
  8
MM_DTM_TEXT
100
AcDbText
 10
296565.0
 20
697735.8000000001
 30
0.0
 40
0.6600000000000001
  1
41.16
100
AcDbText
  0
POINT
  5
4A5
330
344
100
AcDbEntity
  8
MM_DTM
100
AcDbPoint
 10
296570.0
 20
697735.0
 30
40.97
  0
TEXT
  5
4A6
330
344
100
AcDbEntity
  8
MM_DTM_TEXT
100
AcDbText
 10
296570.0
 20
697735.8000000001
 30
0.0
 40
0.6600000000000001
  1
40.97
100
AcDbText
  0
POINT
  5
4A7
330
344
100
AcDbEntity
  8
MM_DTM
100
AcDbPoint
 10
296575.0
 20
697735.0
 30
40.72999999999999
  0
TEXT
  5
4A8
330
344
100
AcDbEntity
  8
MM_DTM_TEXT
100
AcDbText
 10
296575.0
 20
697735.8000000001
 30
0.0
 40
0.6600000000000001
  1
40.73
100
AcDbText
  0
POINT
  5
4A9
330
344
100
AcDbEntity
  8
MM_DTM
100
AcDbPoint
 10
296580.0
 20
697735.0
 30
40.49
  0
TEXT
  5
4AA
330
344
100
AcDbEntity
  8
MM_DTM_TEXT
100
AcDbText
 10
296580.0
 20
697735.8000000001
 30
0.0
 40
0.6600000000000001
  1
40.49
100
AcDbText
  0
POINT
  5
4AB
330
344
100
AcDbEntity
  8
MM_DTM
100
AcDbPoint
 10
296585.0
 20
697735.0
 30
40.25
  0
TEXT
  5
4AC
330
344
100
AcDbEntity
  8
MM_DTM_TEXT
100
AcDbText
 10
296585.0
 20
697735.8000000001
 30
0.0
 40
0.6600000000000001
  1
40.25
100
AcDbText
  0
POINT
  5
4AD
330
344
100
AcDbEntity
  8
MM_DTM
100
AcDbPoint
 10
296590.0
 20
697735.0
 30
39.99
  0
TEXT
  5
4AE
330
344
100
AcDbEntity
  8
MM_DTM_TEXT
100
AcDbText
 10
296590.0
 20
697735.8000000001
 30
0.0
 40
0.6600000000000001
  1
39.99
100
AcDbText
  0
POINT
  5
4AF
330
344
100
AcDbEntity
  8
MM_DTM
100
AcDbPoint
 10
296595.0
 20
697735.0
 30
39.73
  0
TEXT
  5
4B0
330
344
100
AcDbEntity
  8
MM_DTM_TEXT
100
AcDbText
 10
296595.0
 20
697735.8000000001
 30
0.0
 40
0.6600000000000001
  1
39.73
100
AcDbText
  0
POINT
  5
4B1
330
344
100
AcDbEntity
  8
MM_DTM
100
AcDbPoint
 10
296600.0
 20
697735.0
 30
39.47
  0
TEXT
  5
4B2
330
344
100
AcDbEntity
  8
MM_DTM_TEXT
100
AcDbText
 10
296600.0
 20
697735.8000000001
 30
0.0
 40
0.6600000000000001
  1
39.47
100
AcDbText
  0
POINT
  5
4B3
330
344
100
AcDbEntity
  8
MM_DTM
100
AcDbPoint
 10
296605.0
 20
697735.0
 30
39.22
  0
TEXT
  5
4B4
330
344
100
AcDbEntity
  8
MM_DTM_TEXT
100
AcDbText
 10
296605.0
 20
697735.8000000001
 30
0.0
 40
0.6600000000000001
  1
39.22
100
AcDbText
  0
POINT
  5
4B5
330
344
100
AcDbEntity
  8
MM_DTM
100
AcDbPoint
 10
296610.0
 20
697735.0
 30
38.83
  0
TEXT
  5
4B6
330
344
100
AcDbEntity
  8
MM_DTM_TEXT
100
AcDbText
 10
296610.0
 20
697735.8000000001
 30
0.0
 40
0.6600000000000001
  1
38.83
100
AcDbText
  0
POINT
  5
4B7
330
344
100
AcDbEntity
  8
MM_DTM
100
AcDbPoint
 10
296615.0
 20
697735.0
 30
39.34000000000001
  0
TEXT
  5
4B8
330
344
100
AcDbEntity
  8
MM_DTM_TEXT
100
AcDbText
 10
296615.0
 20
697735.8000000001
 30
0.0
 40
0.6600000000000001
  1
39.34
100
AcDbText
  0
POINT
  5
4B9
330
344
100
AcDbEntity
  8
MM_DTM
100
AcDbPoint
 10
296620.0
 20
697735.0
 30
39.58
  0
TEXT
  5
4BA
330
344
100
AcDbEntity
  8
MM_DTM_TEXT
100
AcDbText
 10
296620.0
 20
697735.8000000001
 30
0.0
 40
0.6600000000000001
  1
39.58
100
AcDbText
  0
POINT
  5
4BB
330
344
100
AcDbEntity
  8
MM_DTM
100
AcDbPoint
 10
296625.0
 20
697735.0
 30
39.25
  0
TEXT
  5
4BC
330
344
100
AcDbEntity
  8
MM_DTM_TEXT
100
AcDbText
 10
296625.0
 20
697735.8000000001
 30
0.0
 40
0.6600000000000001
  1
39.25
100
AcDbText
  0
POINT
  5
4BD
330
344
100
AcDbEntity
  8
MM_DTM
100
AcDbPoint
 10
296630.0
 20
697735.0
 30
38.65
  0
TEXT
  5
4BE
330
344
100
AcDbEntity
  8
MM_DTM_TEXT
100
AcDbText
 10
296630.0
 20
697735.8000000001
 30
0.0
 40
0.6600000000000001
  1
38.65
100
AcDbText
  0
POINT
  5
4BF
330
344
100
AcDbEntity
  8
MM_DTM
100
AcDbPoint
 10
296530.0
 20
697740.0
 30
38.29
  0
TEXT
  5
4C0
330
344
100
AcDbEntity
  8
MM_DTM_TEXT
100
AcDbText
 10
296530.0
 20
697740.8000000001
 30
0.0
 40
0.6600000000000001
  1
38.29
100
AcDbText
  0
POINT
  5
4C1
330
344
100
AcDbEntity
  8
MM_DTM
100
AcDbPoint
 10
296535.0
 20
697740.0
 30
38.23
  0
TEXT
  5
4C2
330
344
100
AcDbEntity
  8
MM_DTM_TEXT
100
AcDbText
 10
296535.0
 20
697740.8000000001
 30
0.0
 40
0.6600000000000001
  1
38.23
100
AcDbText
  0
POINT
  5
4C3
330
344
100
AcDbEntity
  8
MM_DTM
100
AcDbPoint
 10
296540.0
 20
697740.0
 30
38.16
  0
TEXT
  5
4C4
330
344
100
AcDbEntity
  8
MM_DTM_TEXT
100
AcDbText
 10
296540.0
 20
697740.8000000001
 30
0.0
 40
0.6600000000000001
  1
38.16
100
AcDbText
  0
POINT
  5
4C5
330
344
100
AcDbEntity
  8
MM_DTM
100
AcDbPoint
 10
296545.0
 20
697740.0
 30
38.04
  0
TEXT
  5
4C6
330
344
100
AcDbEntity
  8
MM_DTM_TEXT
100
AcDbText
 10
296545.0
 20
697740.8000000001
 30
0.0
 40
0.6600000000000001
  1
38.04
100
AcDbText
  0
POINT
  5
4C7
330
344
100
AcDbEntity
  8
MM_DTM
100
AcDbPoint
 10
296550.0
 20
697740.0
 30
40.7
  0
TEXT
  5
4C8
330
344
100
AcDbEntity
  8
MM_DTM_TEXT
100
AcDbText
 10
296550.0
 20
697740.8000000001
 30
0.0
 40
0.6600000000000001
  1
40.70
100
AcDbText
  0
POINT
  5
4C9
330
344
100
AcDbEntity
  8
MM_DTM
100
AcDbPoint
 10
296555.0
 20
697740.0
 30
41.42999999999999
  0
TEXT
  5
4CA
330
344
100
AcDbEntity
  8
MM_DTM_TEXT
100
AcDbText
 10
296555.0
 20
697740.8000000001
 30
0.0
 40
0.6600000000000001
  1
41.43
100
AcDbText
  0
POINT
  5
4CB
330
344
100
AcDbEntity
  8
MM_DTM
100
AcDbPoint
 10
296560.0
 20
697740.0
 30
41.07
  0
TEXT
  5
4CC
330
344
100
AcDbEntity
  8
MM_DTM_TEXT
100
AcDbText
 10
296560.0
 20
697740.8000000001
 30
0.0
 40
0.6600000000000001
  1
41.07
100
AcDbText
  0
POINT
  5
4CD
330
344
100
AcDbEntity
  8
MM_DTM
100
AcDbPoint
 10
296565.0
 20
697740.0
 30
41.0
  0
TEXT
  5
4CE
330
344
100
AcDbEntity
  8
MM_DTM_TEXT
100
AcDbText
 10
296565.0
 20
697740.8000000001
 30
0.0
 40
0.6600000000000001
  1
41.00
100
AcDbText
  0
POINT
  5
4CF
330
344
100
AcDbEntity
  8
MM_DTM
100
AcDbPoint
 10
296570.0
 20
697740.0
 30
41.09
  0
TEXT
  5
4D0
330
344
100
AcDbEntity
  8
MM_DTM_TEXT
100
AcDbText
 10
296570.0
 20
697740.8000000001
 30
0.0
 40
0.6600000000000001
  1
41.09
100
AcDbText
  0
POINT
  5
4D1
330
344
100
AcDbEntity
  8
MM_DTM
100
AcDbPoint
 10
296575.0
 20
697740.0
 30
41.18
  0
TEXT
  5
4D2
330
344
100
AcDbEntity
  8
MM_DTM_TEXT
100
AcDbText
 10
296575.0
 20
697740.8000000001
 30
0.0
 40
0.6600000000000001
  1
41.18
100
AcDbText
  0
POINT
  5
4D3
330
344
100
AcDbEntity
  8
MM_DTM
100
AcDbPoint
 10
296580.0
 20
697740.0
 30
41.1
  0
TEXT
  5
4D4
330
344
100
AcDbEntity
  8
MM_DTM_TEXT
100
AcDbText
 10
296580.0
 20
697740.8000000001
 30
0.0
 40
0.6600000000000001
  1
41.10
100
AcDbText
  0
POINT
  5
4D5
330
344
100
AcDbEntity
  8
MM_DTM
100
AcDbPoint
 10
296585.0
 20
697740.0
 30
40.86
  0
TEXT
  5
4D6
330
344
100
AcDbEntity
  8
MM_DTM_TEXT
100
AcDbText
 10
296585.0
 20
697740.8000000001
 30
0.0
 40
0.6600000000000001
  1
40.86
100
AcDbText
  0
POINT
  5
4D7
330
344
100
AcDbEntity
  8
MM_DTM
100
AcDbPoint
 10
296590.0
 20
697740.0
 30
40.6
  0
TEXT
  5
4D8
330
344
100
AcDbEntity
  8
MM_DTM_TEXT
100
AcDbText
 10
296590.0
 20
697740.8000000001
 30
0.0
 40
0.6600000000000001
  1
40.60
100
AcDbText
  0
POINT
  5
4D9
330
344
100
AcDbEntity
  8
MM_DTM
100
AcDbPoint
 10
296595.0
 20
697740.0
 30
40.35
  0
TEXT
  5
4DA
330
344
100
AcDbEntity
  8
MM_DTM_TEXT
100
AcDbText
 10
296595.0
 20
697740.8000000001
 30
0.0
 40
0.6600000000000001
  1
40.35
100
AcDbText
  0
POINT
  5
4DB
330
344
100
AcDbEntity
  8
MM_DTM
100
AcDbPoint
 10
296600.0
 20
697740.0
 30
39.96
  0
TEXT
  5
4DC
330
344
100
AcDbEntity
  8
MM_DTM_TEXT
100
AcDbText
 10
296600.0
 20
697740.8000000001
 30
0.0
 40
0.6600000000000001
  1
39.96
100
AcDbText
  0
POINT
  5
4DD
330
344
100
AcDbEntity
  8
MM_DTM
100
AcDbPoint
 10
296605.0
 20
697740.0
 30
39.57
  0
TEXT
  5
4DE
330
344
100
AcDbEntity
  8
MM_DTM_TEXT
100
AcDbText
 10
296605.0
 20
697740.8000000001
 30
0.0
 40
0.6600000000000001
  1
39.57
100
AcDbText
  0
POINT
  5
4DF
330
344
100
AcDbEntity
  8
MM_DTM
100
AcDbPoint
 10
296610.0
 20
697740.0
 30
39.18
  0
TEXT
  5
4E0
330
344
100
AcDbEntity
  8
MM_DTM_TEXT
100
AcDbText
 10
296610.0
 20
697740.8000000001
 30
0.0
 40
0.6600000000000001
  1
39.18
100
AcDbText
  0
POINT
  5
4E1
330
344
100
AcDbEntity
  8
MM_DTM
100
AcDbPoint
 10
296615.0
 20
697740.0
 30
40.36999999999999
  0
TEXT
  5
4E2
330
344
100
AcDbEntity
  8
MM_DTM_TEXT
100
AcDbText
 10
296615.0
 20
697740.8000000001
 30
0.0
 40
0.6600000000000001
  1
40.37
100
AcDbText
  0
POINT
  5
4E3
330
344
100
AcDbEntity
  8
MM_DTM
100
AcDbPoint
 10
296620.0
 20
697740.0
 30
39.63
  0
TEXT
  5
4E4
330
344
100
AcDbEntity
  8
MM_DTM_TEXT
100
AcDbText
 10
296620.0
 20
697740.8000000001
 30
0.0
 40
0.6600000000000001
  1
39.63
100
AcDbText
  0
POINT
  5
4E5
330
344
100
AcDbEntity
  8
MM_DTM
100
AcDbPoint
 10
296625.0
 20
697740.0
 30
38.83
  0
TEXT
  5
4E6
330
344
100
AcDbEntity
  8
MM_DTM_TEXT
100
AcDbText
 10
296625.0
 20
697740.8000000001
 30
0.0
 40
0.6600000000000001
  1
38.83
100
AcDbText
  0
POINT
  5
4E7
330
344
100
AcDbEntity
  8
MM_DTM
100
AcDbPoint
 10
296630.0
 20
697740.0
 30
38.36
  0
TEXT
  5
4E8
330
344
100
AcDbEntity
  8
MM_DTM_TEXT
100
AcDbText
 10
296630.0
 20
697740.8000000001
 30
0.0
 40
0.6600000000000001
  1
38.36
100
AcDbText
  0
POINT
  5
4E9
330
344
100
AcDbEntity
  8
MM_DTM
100
AcDbPoint
 10
296530.0
 20
697745.0
 30
38.48
  0
TEXT
  5
4EA
330
344
100
AcDbEntity
  8
MM_DTM_TEXT
100
AcDbText
 10
296530.0
 20
697745.8000000002
 30
0.0
 40
0.6600000000000001
  1
38.48
100
AcDbText
  0
POINT
  5
4EB
330
344
100
AcDbEntity
  8
MM_DTM
100
AcDbPoint
 10
296535.0
 20
697745.0
 30
38.42
  0
TEXT
  5
4EC
330
344
100
AcDbEntity
  8
MM_DTM_TEXT
100
AcDbText
 10
296535.0
 20
697745.8000000002
 30
0.0
 40
0.6600000000000001
  1
38.42
100
AcDbText
  0
POINT
  5
4ED
330
344
100
AcDbEntity
  8
MM_DTM
100
AcDbPoint
 10
296540.0
 20
697745.0
 30
38.51
  0
TEXT
  5
4EE
330
344
100
AcDbEntity
  8
MM_DTM_TEXT
100
AcDbText
 10
296540.0
 20
697745.8000000002
 30
0.0
 40
0.6600000000000001
  1
38.51
100
AcDbText
  0
POINT
  5
4EF
330
344
100
AcDbEntity
  8
MM_DTM
100
AcDbPoint
 10
296545.0
 20
697745.0
 30
38.54
  0
TEXT
  5
4F0
330
344
100
AcDbEntity
  8
MM_DTM_TEXT
100
AcDbText
 10
296545.0
 20
697745.8000000002
 30
0.0
 40
0.6600000000000001
  1
38.54
100
AcDbText
  0
POINT
  5
4F1
330
344
100
AcDbEntity
  8
MM_DTM
100
AcDbPoint
 10
296550.0
 20
697745.0
 30
41.28
  0
TEXT
  5
4F2
330
344
100
AcDbEntity
  8
MM_DTM_TEXT
100
AcDbText
 10
296550.0
 20
697745.8000000002
 30
0.0
 40
0.6600000000000001
  1
41.28
100
AcDbText
  0
POINT
  5
4F3
330
344
100
AcDbEntity
  8
MM_DTM
100
AcDbPoint
 10
296555.0
 20
697745.0
 30
41.07999999999999
  0
TEXT
  5
4F4
330
344
100
AcDbEntity
  8
MM_DTM_TEXT
100
AcDbText
 10
296555.0
 20
697745.8000000002
 30
0.0
 40
0.6600000000000001
  1
41.08
100
AcDbText
  0
POINT
  5
4F5
330
344
100
AcDbEntity
  8
MM_DTM
100
AcDbPoint
 10
296560.0
 20
697745.0
 30
40.88
  0
TEXT
  5
4F6
330
344
100
AcDbEntity
  8
MM_DTM_TEXT
100
AcDbText
 10
296560.0
 20
697745.8000000002
 30
0.0
 40
0.6600000000000001
  1
40.88
100
AcDbText
  0
POINT
  5
4F7
330
344
100
AcDbEntity
  8
MM_DTM
100
AcDbPoint
 10
296565.0
 20
697745.0
 30
40.92999999999999
  0
TEXT
  5
4F8
330
344
100
AcDbEntity
  8
MM_DTM_TEXT
100
AcDbText
 10
296565.0
 20
697745.8000000002
 30
0.0
 40
0.6600000000000001
  1
40.93
100
AcDbText
  0
POINT
  5
4F9
330
344
100
AcDbEntity
  8
MM_DTM
100
AcDbPoint
 10
296570.0
 20
697745.0
 30
41.02
  0
TEXT
  5
4FA
330
344
100
AcDbEntity
  8
MM_DTM_TEXT
100
AcDbText
 10
296570.0
 20
697745.8000000002
 30
0.0
 40
0.6600000000000001
  1
41.02
100
AcDbText
  0
POINT
  5
4FB
330
344
100
AcDbEntity
  8
MM_DTM
100
AcDbPoint
 10
296575.0
 20
697745.0
 30
41.10999999999999
  0
TEXT
  5
4FC
330
344
100
AcDbEntity
  8
MM_DTM_TEXT
100
AcDbText
 10
296575.0
 20
697745.8000000002
 30
0.0
 40
0.6600000000000001
  1
41.11
100
AcDbText
  0
POINT
  5
4FD
330
344
100
AcDbEntity
  8
MM_DTM
100
AcDbPoint
 10
296580.0
 20
697745.0
 30
41.2
  0
TEXT
  5
4FE
330
344
100
AcDbEntity
  8
MM_DTM_TEXT
100
AcDbText
 10
296580.0
 20
697745.8000000002
 30
0.0
 40
0.6600000000000001
  1
41.20
100
AcDbText
  0
POINT
  5
4FF
330
344
100
AcDbEntity
  8
MM_DTM
100
AcDbPoint
 10
296585.0
 20
697745.0
 30
41.28
  0
TEXT
  5
500
330
344
100
AcDbEntity
  8
MM_DTM_TEXT
100
AcDbText
 10
296585.0
 20
697745.8000000002
 30
0.0
 40
0.6600000000000001
  1
41.28
100
AcDbText
  0
POINT
  5
501
330
344
100
AcDbEntity
  8
MM_DTM
100
AcDbPoint
 10
296590.0
 20
697745.0
 30
41.10999999999999
  0
TEXT
  5
502
330
344
100
AcDbEntity
  8
MM_DTM_TEXT
100
AcDbText
 10
296590.0
 20
697745.8000000002
 30
0.0
 40
0.6600000000000001
  1
41.11
100
AcDbText
  0
POINT
  5
503
330
344
100
AcDbEntity
  8
MM_DTM
100
AcDbPoint
 10
296595.0
 20
697745.0
 30
40.72
  0
TEXT
  5
504
330
344
100
AcDbEntity
  8
MM_DTM_TEXT
100
AcDbText
 10
296595.0
 20
697745.8000000002
 30
0.0
 40
0.6600000000000001
  1
40.72
100
AcDbText
  0
POINT
  5
505
330
344
100
AcDbEntity
  8
MM_DTM
100
AcDbPoint
 10
296600.0
 20
697745.0
 30
40.33
  0
TEXT
  5
506
330
344
100
AcDbEntity
  8
MM_DTM_TEXT
100
AcDbText
 10
296600.0
 20
697745.8000000002
 30
0.0
 40
0.6600000000000001
  1
40.33
100
AcDbText
  0
POINT
  5
507
330
344
100
AcDbEntity
  8
MM_DTM
100
AcDbPoint
 10
296605.0
 20
697745.0
 30
39.94
  0
TEXT
  5
508
330
344
100
AcDbEntity
  8
MM_DTM_TEXT
100
AcDbText
 10
296605.0
 20
697745.8000000002
 30
0.0
 40
0.6600000000000001
  1
39.94
100
AcDbText
  0
POINT
  5
509
330
344
100
AcDbEntity
  8
MM_DTM
100
AcDbPoint
 10
296610.0
 20
697745.0
 30
39.54
  0
TEXT
  5
50A
330
344
100
AcDbEntity
  8
MM_DTM_TEXT
100
AcDbText
 10
296610.0
 20
697745.8000000002
 30
0.0
 40
0.6600000000000001
  1
39.54
100
AcDbText
  0
POINT
  5
50B
330
344
100
AcDbEntity
  8
MM_DTM
100
AcDbPoint
 10
296615.0
 20
697745.0
 30
39.14
  0
TEXT
  5
50C
330
344
100
AcDbEntity
  8
MM_DTM_TEXT
100
AcDbText
 10
296615.0
 20
697745.8000000002
 30
0.0
 40
0.6600000000000001
  1
39.14
100
AcDbText
  0
POINT
  5
50D
330
344
100
AcDbEntity
  8
MM_DTM
100
AcDbPoint
 10
296620.0
 20
697745.0
 30
39.22
  0
TEXT
  5
50E
330
344
100
AcDbEntity
  8
MM_DTM_TEXT
100
AcDbText
 10
296620.0
 20
697745.8000000002
 30
0.0
 40
0.6600000000000001
  1
39.22
100
AcDbText
  0
POINT
  5
50F
330
344
100
AcDbEntity
  8
MM_DTM
100
AcDbPoint
 10
296625.0
 20
697745.0
 30
38.46
  0
TEXT
  5
510
330
344
100
AcDbEntity
  8
MM_DTM_TEXT
100
AcDbText
 10
296625.0
 20
697745.8000000002
 30
0.0
 40
0.6600000000000001
  1
38.46
100
AcDbText
  0
POINT
  5
511
330
344
100
AcDbEntity
  8
MM_DTM
100
AcDbPoint
 10
296630.0
 20
697745.0
 30
38.07
  0
TEXT
  5
512
330
344
100
AcDbEntity
  8
MM_DTM_TEXT
100
AcDbText
 10
296630.0
 20
697745.8000000002
 30
0.0
 40
0.6600000000000001
  1
38.07
100
AcDbText
  0
POINT
  5
513
330
344
100
AcDbEntity
  8
MM_DTM
100
AcDbPoint
 10
296530.0
 20
697750.0
 30
38.52
  0
TEXT
  5
514
330
344
100
AcDbEntity
  8
MM_DTM_TEXT
100
AcDbText
 10
296530.0
 20
697750.8
 30
0.0
 40
0.6600000000000001
  1
38.52
100
AcDbText
  0
POINT
  5
515
330
344
100
AcDbEntity
  8
MM_DTM
100
AcDbPoint
 10
296535.0
 20
697750.0
 30
38.46
  0
TEXT
  5
516
330
344
100
AcDbEntity
  8
MM_DTM_TEXT
100
AcDbText
 10
296535.0
 20
697750.8
 30
0.0
 40
0.6600000000000001
  1
38.46
100
AcDbText
  0
POINT
  5
517
330
344
100
AcDbEntity
  8
MM_DTM
100
AcDbPoint
 10
296540.0
 20
697750.0
 30
38.73
  0
TEXT
  5
518
330
344
100
AcDbEntity
  8
MM_DTM_TEXT
100
AcDbText
 10
296540.0
 20
697750.8
 30
0.0
 40
0.6600000000000001
  1
38.73
100
AcDbText
  0
POINT
  5
519
330
344
100
AcDbEntity
  8
MM_DTM
100
AcDbPoint
 10
296545.0
 20
697750.0
 30
39.33
  0
TEXT
  5
51A
330
344
100
AcDbEntity
  8
MM_DTM_TEXT
100
AcDbText
 10
296545.0
 20
697750.8
 30
0.0
 40
0.6600000000000001
  1
39.33
100
AcDbText
  0
POINT
  5
51B
330
344
100
AcDbEntity
  8
MM_DTM
100
AcDbPoint
 10
296550.0
 20
697750.0
 30
40.8
  0
TEXT
  5
51C
330
344
100
AcDbEntity
  8
MM_DTM_TEXT
100
AcDbText
 10
296550.0
 20
697750.8
 30
0.0
 40
0.6600000000000001
  1
40.80
100
AcDbText
  0
POINT
  5
51D
330
344
100
AcDbEntity
  8
MM_DTM
100
AcDbPoint
 10
296555.0
 20
697750.0
 30
40.59
  0
TEXT
  5
51E
330
344
100
AcDbEntity
  8
MM_DTM_TEXT
100
AcDbText
 10
296555.0
 20
697750.8
 30
0.0
 40
0.6600000000000001
  1
40.59
100
AcDbText
  0
POINT
  5
51F
330
344
100
AcDbEntity
  8
MM_DTM
100
AcDbPoint
 10
296560.0
 20
697750.0
 30
41.16999999999999
  0
TEXT
  5
520
330
344
100
AcDbEntity
  8
MM_DTM_TEXT
100
AcDbText
 10
296560.0
 20
697750.8
 30
0.0
 40
0.6600000000000001
  1
41.17
100
AcDbText
  0
POINT
  5
521
330
344
100
AcDbEntity
  8
MM_DTM
100
AcDbPoint
 10
296565.0
 20
697750.0
 30
41.27
  0
TEXT
  5
522
330
344
100
AcDbEntity
  8
MM_DTM_TEXT
100
AcDbText
 10
296565.0
 20
697750.8
 30
0.0
 40
0.6600000000000001
  1
41.27
100
AcDbText
  0
POINT
  5
523
330
344
100
AcDbEntity
  8
MM_DTM
100
AcDbPoint
 10
296570.0
 20
697750.0
 30
41.36
  0
TEXT
  5
524
330
344
100
AcDbEntity
  8
MM_DTM_TEXT
100
AcDbText
 10
296570.0
 20
697750.8
 30
0.0
 40
0.6600000000000001
  1
41.36
100
AcDbText
  0
POINT
  5
525
330
344
100
AcDbEntity
  8
MM_DTM
100
AcDbPoint
 10
296575.0
 20
697750.0
 30
41.45
  0
TEXT
  5
526
330
344
100
AcDbEntity
  8
MM_DTM_TEXT
100
AcDbText
 10
296575.0
 20
697750.8
 30
0.0
 40
0.6600000000000001
  1
41.45
100
AcDbText
  0
POINT
  5
527
330
344
100
AcDbEntity
  8
MM_DTM
100
AcDbPoint
 10
296580.0
 20
697750.0
 30
41.47
  0
TEXT
  5
528
330
344
100
AcDbEntity
  8
MM_DTM_TEXT
100
AcDbText
 10
296580.0
 20
697750.8
 30
0.0
 40
0.6600000000000001
  1
41.47
100
AcDbText
  0
POINT
  5
529
330
344
100
AcDbEntity
  8
MM_DTM
100
AcDbPoint
 10
296585.0
 20
697750.0
 30
41.49
  0
TEXT
  5
52A
330
344
100
AcDbEntity
  8
MM_DTM_TEXT
100
AcDbText
 10
296585.0
 20
697750.8
 30
0.0
 40
0.6600000000000001
  1
41.49
100
AcDbText
  0
POINT
  5
52B
330
344
100
AcDbEntity
  8
MM_DTM
100
AcDbPoint
 10
296590.0
 20
697750.0
 30
41.45999999999999
  0
TEXT
  5
52C
330
344
100
AcDbEntity
  8
MM_DTM_TEXT
100
AcDbText
 10
296590.0
 20
697750.8
 30
0.0
 40
0.6600000000000001
  1
41.46
100
AcDbText
  0
POINT
  5
52D
330
344
100
AcDbEntity
  8
MM_DTM
100
AcDbPoint
 10
296595.0
 20
697750.0
 30
41.15999999999999
  0
TEXT
  5
52E
330
344
100
AcDbEntity
  8
MM_DTM_TEXT
100
AcDbText
 10
296595.0
 20
697750.8
 30
0.0
 40
0.6600000000000001
  1
41.16
100
AcDbText
  0
POINT
  5
52F
330
344
100
AcDbEntity
  8
MM_DTM
100
AcDbPoint
 10
296600.0
 20
697750.0
 30
40.77
  0
TEXT
  5
530
330
344
100
AcDbEntity
  8
MM_DTM_TEXT
100
AcDbText
 10
296600.0
 20
697750.8
 30
0.0
 40
0.6600000000000001
  1
40.77
100
AcDbText
  0
POINT
  5
531
330
344
100
AcDbEntity
  8
MM_DTM
100
AcDbPoint
 10
296605.0
 20
697750.0
 30
40.38
  0
TEXT
  5
532
330
344
100
AcDbEntity
  8
MM_DTM_TEXT
100
AcDbText
 10
296605.0
 20
697750.8
 30
0.0
 40
0.6600000000000001
  1
40.38
100
AcDbText
  0
POINT
  5
533
330
344
100
AcDbEntity
  8
MM_DTM
100
AcDbPoint
 10
296610.0
 20
697750.0
 30
39.99
  0
TEXT
  5
534
330
344
100
AcDbEntity
  8
MM_DTM_TEXT
100
AcDbText
 10
296610.0
 20
697750.8
 30
0.0
 40
0.6600000000000001
  1
39.99
100
AcDbText
  0
POINT
  5
535
330
344
100
AcDbEntity
  8
MM_DTM
100
AcDbPoint
 10
296615.0
 20
697750.0
 30
39.45
  0
TEXT
  5
536
330
344
100
AcDbEntity
  8
MM_DTM_TEXT
100
AcDbText
 10
296615.0
 20
697750.8
 30
0.0
 40
0.6600000000000001
  1
39.45
100
AcDbText
  0
POINT
  5
537
330
344
100
AcDbEntity
  8
MM_DTM
100
AcDbPoint
 10
296620.0
 20
697750.0
 30
38.62
  0
TEXT
  5
538
330
344
100
AcDbEntity
  8
MM_DTM_TEXT
100
AcDbText
 10
296620.0
 20
697750.8
 30
0.0
 40
0.6600000000000001
  1
38.62
100
AcDbText
  0
POINT
  5
539
330
344
100
AcDbEntity
  8
MM_DTM
100
AcDbPoint
 10
296625.0
 20
697750.0
 30
38.17
  0
TEXT
  5
53A
330
344
100
AcDbEntity
  8
MM_DTM_TEXT
100
AcDbText
 10
296625.0
 20
697750.8
 30
0.0
 40
0.6600000000000001
  1
38.17
100
AcDbText
  0
POINT
  5
53B
330
344
100
AcDbEntity
  8
MM_DTM
100
AcDbPoint
 10
296630.0
 20
697750.0
 30
38.65
  0
TEXT
  5
53C
330
344
100
AcDbEntity
  8
MM_DTM_TEXT
100
AcDbText
 10
296630.0
 20
697750.8
 30
0.0
 40
0.6600000000000001
  1
38.65
100
AcDbText
  0
POINT
  5
53D
330
344
100
AcDbEntity
  8
MM_DTM
100
AcDbPoint
 10
296530.0
 20
697755.0
 30
38.55
  0
TEXT
  5
53E
330
344
100
AcDbEntity
  8
MM_DTM_TEXT
100
AcDbText
 10
296530.0
 20
697755.8000000001
 30
0.0
 40
0.6600000000000001
  1
38.55
100
AcDbText
  0
POINT
  5
53F
330
344
100
AcDbEntity
  8
MM_DTM
100
AcDbPoint
 10
296535.0
 20
697755.0
 30
38.49
  0
TEXT
  5
540
330
344
100
AcDbEntity
  8
MM_DTM_TEXT
100
AcDbText
 10
296535.0
 20
697755.8000000001
 30
0.0
 40
0.6600000000000001
  1
38.49
100
AcDbText
  0
POINT
  5
541
330
344
100
AcDbEntity
  8
MM_DTM
100
AcDbPoint
 10
296540.0
 20
697755.0
 30
38.87
  0
TEXT
  5
542
330
344
100
AcDbEntity
  8
MM_DTM_TEXT
100
AcDbText
 10
296540.0
 20
697755.8000000001
 30
0.0
 40
0.6600000000000001
  1
38.87
100
AcDbText
  0
POINT
  5
543
330
344
100
AcDbEntity
  8
MM_DTM
100
AcDbPoint
 10
296545.0
 20
697755.0
 30
39.87
  0
TEXT
  5
544
330
344
100
AcDbEntity
  8
MM_DTM_TEXT
100
AcDbText
 10
296545.0
 20
697755.8000000001
 30
0.0
 40
0.6600000000000001
  1
39.87
100
AcDbText
  0
POINT
  5
545
330
344
100
AcDbEntity
  8
MM_DTM
100
AcDbPoint
 10
296550.0
 20
697755.0
 30
40.54999999999999
  0
TEXT
  5
546
330
344
100
AcDbEntity
  8
MM_DTM_TEXT
100
AcDbText
 10
296550.0
 20
697755.8000000001
 30
0.0
 40
0.6600000000000001
  1
40.55
100
AcDbText
  0
POINT
  5
547
330
344
100
AcDbEntity
  8
MM_DTM
100
AcDbPoint
 10
296555.0
 20
697755.0
 30
41.15999999999999
  0
TEXT
  5
548
330
344
100
AcDbEntity
  8
MM_DTM_TEXT
100
AcDbText
 10
296555.0
 20
697755.8000000001
 30
0.0
 40
0.6600000000000001
  1
41.16
100
AcDbText
  0
POINT
  5
549
330
344
100
AcDbEntity
  8
MM_DTM
100
AcDbPoint
 10
296560.0
 20
697755.0
 30
41.53
  0
TEXT
  5
54A
330
344
100
AcDbEntity
  8
MM_DTM_TEXT
100
AcDbText
 10
296560.0
 20
697755.8000000001
 30
0.0
 40
0.6600000000000001
  1
41.53
100
AcDbText
  0
POINT
  5
54B
330
344
100
AcDbEntity
  8
MM_DTM
100
AcDbPoint
 10
296565.0
 20
697755.0
 30
41.61
  0
TEXT
  5
54C
330
344
100
AcDbEntity
  8
MM_DTM_TEXT
100
AcDbText
 10
296565.0
 20
697755.8000000001
 30
0.0
 40
0.6600000000000001
  1
41.61
100
AcDbText
  0
POINT
  5
54D
330
344
100
AcDbEntity
  8
MM_DTM
100
AcDbPoint
 10
296570.0
 20
697755.0
 30
41.64
  0
TEXT
  5
54E
330
344
100
AcDbEntity
  8
MM_DTM_TEXT
100
AcDbText
 10
296570.0
 20
697755.8000000001
 30
0.0
 40
0.6600000000000001
  1
41.64
100
AcDbText
  0
POINT
  5
54F
330
344
100
AcDbEntity
  8
MM_DTM
100
AcDbPoint
 10
296575.0
 20
697755.0
 30
41.65999999999999
  0
TEXT
  5
550
330
344
100
AcDbEntity
  8
MM_DTM_TEXT
100
AcDbText
 10
296575.0
 20
697755.8000000001
 30
0.0
 40
0.6600000000000001
  1
41.66
100
AcDbText
  0
POINT
  5
551
330
344
100
AcDbEntity
  8
MM_DTM
100
AcDbPoint
 10
296580.0
 20
697755.0
 30
41.68
  0
TEXT
  5
552
330
344
100
AcDbEntity
  8
MM_DTM_TEXT
100
AcDbText
 10
296580.0
 20
697755.8000000001
 30
0.0
 40
0.6600000000000001
  1
41.68
100
AcDbText
  0
POINT
  5
553
330
344
100
AcDbEntity
  8
MM_DTM
100
AcDbPoint
 10
296585.0
 20
697755.0
 30
41.7
  0
TEXT
  5
554
330
344
100
AcDbEntity
  8
MM_DTM_TEXT
100
AcDbText
 10
296585.0
 20
697755.8000000001
 30
0.0
 40
0.6600000000000001
  1
41.70
100
AcDbText
  0
POINT
  5
555
330
344
100
AcDbEntity
  8
MM_DTM
100
AcDbPoint
 10
296590.0
 20
697755.0
 30
41.68999999999999
  0
TEXT
  5
556
330
344
100
AcDbEntity
  8
MM_DTM_TEXT
100
AcDbText
 10
296590.0
 20
697755.8000000001
 30
0.0
 40
0.6600000000000001
  1
41.69
100
AcDbText
  0
POINT
  5
557
330
344
100
AcDbEntity
  8
MM_DTM
100
AcDbPoint
 10
296595.0
 20
697755.0
 30
41.57
  0
TEXT
  5
558
330
344
100
AcDbEntity
  8
MM_DTM_TEXT
100
AcDbText
 10
296595.0
 20
697755.8000000001
 30
0.0
 40
0.6600000000000001
  1
41.57
100
AcDbText
  0
POINT
  5
559
330
344
100
AcDbEntity
  8
MM_DTM
100
AcDbPoint
 10
296600.0
 20
697755.0
 30
41.21
  0
TEXT
  5
55A
330
344
100
AcDbEntity
  8
MM_DTM_TEXT
100
AcDbText
 10
296600.0
 20
697755.8000000001
 30
0.0
 40
0.6600000000000001
  1
41.21
100
AcDbText
  0
POINT
  5
55B
330
344
100
AcDbEntity
  8
MM_DTM
100
AcDbPoint
 10
296605.0
 20
697755.0
 30
40.81999999999999
  0
TEXT
  5
55C
330
344
100
AcDbEntity
  8
MM_DTM_TEXT
100
AcDbText
 10
296605.0
 20
697755.8000000001
 30
0.0
 40
0.6600000000000001
  1
40.82
100
AcDbText
  0
POINT
  5
55D
330
344
100
AcDbEntity
  8
MM_DTM
100
AcDbPoint
 10
296610.0
 20
697755.0
 30
40.43
  0
TEXT
  5
55E
330
344
100
AcDbEntity
  8
MM_DTM_TEXT
100
AcDbText
 10
296610.0
 20
697755.8000000001
 30
0.0
 40
0.6600000000000001
  1
40.43
100
AcDbText
  0
POINT
  5
55F
330
344
100
AcDbEntity
  8
MM_DTM
100
AcDbPoint
 10
296615.0
 20
697755.0
 30
39.76
  0
TEXT
  5
560
330
344
100
AcDbEntity
  8
MM_DTM_TEXT
100
AcDbText
 10
296615.0
 20
697755.8000000001
 30
0.0
 40
0.6600000000000001
  1
39.76
100
AcDbText
  0
POINT
  5
561
330
344
100
AcDbEntity
  8
MM_DTM
100
AcDbPoint
 10
296620.0
 20
697755.0
 30
38.75
  0
TEXT
  5
562
330
344
100
AcDbEntity
  8
MM_DTM_TEXT
100
AcDbText
 10
296620.0
 20
697755.8000000001
 30
0.0
 40
0.6600000000000001
  1
38.75
100
AcDbText
  0
POINT
  5
563
330
344
100
AcDbEntity
  8
MM_DTM
100
AcDbPoint
 10
296625.0
 20
697755.0
 30
38.45
  0
TEXT
  5
564
330
344
100
AcDbEntity
  8
MM_DTM_TEXT
100
AcDbText
 10
296625.0
 20
697755.8000000001
 30
0.0
 40
0.6600000000000001
  1
38.45
100
AcDbText
  0
POINT
  5
565
330
344
100
AcDbEntity
  8
MM_DTM
100
AcDbPoint
 10
296630.0
 20
697755.0
 30
38.85
  0
TEXT
  5
566
330
344
100
AcDbEntity
  8
MM_DTM_TEXT
100
AcDbText
 10
296630.0
 20
697755.8000000001
 30
0.0
 40
0.6600000000000001
  1
38.85
100
AcDbText
  0
POINT
  5
567
330
344
100
AcDbEntity
  8
MM_DTM
100
AcDbPoint
 10
296530.0
 20
697760.0
 30
38.58
  0
TEXT
  5
568
330
344
100
AcDbEntity
  8
MM_DTM_TEXT
100
AcDbText
 10
296530.0
 20
697760.8
 30
0.0
 40
0.6600000000000001
  1
38.58
100
AcDbText
  0
POINT
  5
569
330
344
100
AcDbEntity
  8
MM_DTM
100
AcDbPoint
 10
296535.0
 20
697760.0
 30
38.61
  0
TEXT
  5
56A
330
344
100
AcDbEntity
  8
MM_DTM_TEXT
100
AcDbText
 10
296535.0
 20
697760.8
 30
0.0
 40
0.6600000000000001
  1
38.61
100
AcDbText
  0
POINT
  5
56B
330
344
100
AcDbEntity
  8
MM_DTM
100
AcDbPoint
 10
296540.0
 20
697760.0
 30
42.43999999999999
  0
TEXT
  5
56C
330
344
100
AcDbEntity
  8
MM_DTM_TEXT
100
AcDbText
 10
296540.0
 20
697760.8
 30
0.0
 40
0.6600000000000001
  1
42.44
100
AcDbText
  0
POINT
  5
56D
330
344
100
AcDbEntity
  8
MM_DTM
100
AcDbPoint
 10
296545.0
 20
697760.0
 30
43.04999999999999
  0
TEXT
  5
56E
330
344
100
AcDbEntity
  8
MM_DTM_TEXT
100
AcDbText
 10
296545.0
 20
697760.8
 30
0.0
 40
0.6600000000000001
  1
43.05
100
AcDbText
  0
POINT
  5
56F
330
344
100
AcDbEntity
  8
MM_DTM
100
AcDbPoint
 10
296550.0
 20
697760.0
 30
42.72999999999999
  0
TEXT
  5
570
330
344
100
AcDbEntity
  8
MM_DTM_TEXT
100
AcDbText
 10
296550.0
 20
697760.8
 30
0.0
 40
0.6600000000000001
  1
42.73
100
AcDbText
  0
POINT
  5
571
330
344
100
AcDbEntity
  8
MM_DTM
100
AcDbPoint
 10
296555.0
 20
697760.0
 30
41.77
  0
TEXT
  5
572
330
344
100
AcDbEntity
  8
MM_DTM_TEXT
100
AcDbText
 10
296555.0
 20
697760.8
 30
0.0
 40
0.6600000000000001
  1
41.77
100
AcDbText
  0
POINT
  5
573
330
344
100
AcDbEntity
  8
MM_DTM
100
AcDbPoint
 10
296560.0
 20
697760.0
 30
41.79999999999999
  0
TEXT
  5
574
330
344
100
AcDbEntity
  8
MM_DTM_TEXT
100
AcDbText
 10
296560.0
 20
697760.8
 30
0.0
 40
0.6600000000000001
  1
41.80
100
AcDbText
  0
POINT
  5
575
330
344
100
AcDbEntity
  8
MM_DTM
100
AcDbPoint
 10
296565.0
 20
697760.0
 30
41.82
  0
TEXT
  5
576
330
344
100
AcDbEntity
  8
MM_DTM_TEXT
100
AcDbText
 10
296565.0
 20
697760.8
 30
0.0
 40
0.6600000000000001
  1
41.82
100
AcDbText
  0
POINT
  5
577
330
344
100
AcDbEntity
  8
MM_DTM
100
AcDbPoint
 10
296570.0
 20
697760.0
 30
41.84
  0
TEXT
  5
578
330
344
100
AcDbEntity
  8
MM_DTM_TEXT
100
AcDbText
 10
296570.0
 20
697760.8
 30
0.0
 40
0.6600000000000001
  1
41.84
100
AcDbText
  0
POINT
  5
579
330
344
100
AcDbEntity
  8
MM_DTM
100
AcDbPoint
 10
296575.0
 20
697760.0
 30
41.85999999999999
  0
TEXT
  5
57A
330
344
100
AcDbEntity
  8
MM_DTM_TEXT
100
AcDbText
 10
296575.0
 20
697760.8
 30
0.0
 40
0.6600000000000001
  1
41.86
100
AcDbText
  0
POINT
  5
57B
330
344
100
AcDbEntity
  8
MM_DTM
100
AcDbPoint
 10
296580.0
 20
697760.0
 30
41.88
  0
TEXT
  5
57C
330
344
100
AcDbEntity
  8
MM_DTM_TEXT
100
AcDbText
 10
296580.0
 20
697760.8
 30
0.0
 40
0.6600000000000001
  1
41.88
100
AcDbText
  0
POINT
  5
57D
330
344
100
AcDbEntity
  8
MM_DTM
100
AcDbPoint
 10
296585.0
 20
697760.0
 30
41.9
  0
TEXT
  5
57E
330
344
100
AcDbEntity
  8
MM_DTM_TEXT
100
AcDbText
 10
296585.0
 20
697760.8
 30
0.0
 40
0.6600000000000001
  1
41.90
100
AcDbText
  0
POINT
  5
57F
330
344
100
AcDbEntity
  8
MM_DTM
100
AcDbPoint
 10
296590.0
 20
697760.0
 30
41.92
  0
TEXT
  5
580
330
344
100
AcDbEntity
  8
MM_DTM_TEXT
100
AcDbText
 10
296590.0
 20
697760.8
 30
0.0
 40
0.6600000000000001
  1
41.92
100
AcDbText
  0
POINT
  5
581
330
344
100
AcDbEntity
  8
MM_DTM
100
AcDbPoint
 10
296595.0
 20
697760.0
 30
41.79999999999999
  0
TEXT
  5
582
330
344
100
AcDbEntity
  8
MM_DTM_TEXT
100
AcDbText
 10
296595.0
 20
697760.8
 30
0.0
 40
0.6600000000000001
  1
41.80
100
AcDbText
  0
POINT
  5
583
330
344
100
AcDbEntity
  8
MM_DTM
100
AcDbPoint
 10
296600.0
 20
697760.0
 30
41.65
  0
TEXT
  5
584
330
344
100
AcDbEntity
  8
MM_DTM_TEXT
100
AcDbText
 10
296600.0
 20
697760.8
 30
0.0
 40
0.6600000000000001
  1
41.65
100
AcDbText
  0
POINT
  5
585
330
344
100
AcDbEntity
  8
MM_DTM
100
AcDbPoint
 10
296605.0
 20
697760.0
 30
41.26
  0
TEXT
  5
586
330
344
100
AcDbEntity
  8
MM_DTM_TEXT
100
AcDbText
 10
296605.0
 20
697760.8
 30
0.0
 40
0.6600000000000001
  1
41.26
100
AcDbText
  0
POINT
  5
587
330
344
100
AcDbEntity
  8
MM_DTM
100
AcDbPoint
 10
296610.0
 20
697760.0
 30
40.86999999999999
  0
TEXT
  5
588
330
344
100
AcDbEntity
  8
MM_DTM_TEXT
100
AcDbText
 10
296610.0
 20
697760.8
 30
0.0
 40
0.6600000000000001
  1
40.87
100
AcDbText
  0
POINT
  5
589
330
344
100
AcDbEntity
  8
MM_DTM
100
AcDbPoint
 10
296615.0
 20
697760.0
 30
40.07
  0
TEXT
  5
58A
330
344
100
AcDbEntity
  8
MM_DTM_TEXT
100
AcDbText
 10
296615.0
 20
697760.8
 30
0.0
 40
0.6600000000000001
  1
40.07
100
AcDbText
  0
POINT
  5
58B
330
344
100
AcDbEntity
  8
MM_DTM
100
AcDbPoint
 10
296620.0
 20
697760.0
 30
39.11
  0
TEXT
  5
58C
330
344
100
AcDbEntity
  8
MM_DTM_TEXT
100
AcDbText
 10
296620.0
 20
697760.8
 30
0.0
 40
0.6600000000000001
  1
39.11
100
AcDbText
  0
POINT
  5
58D
330
344
100
AcDbEntity
  8
MM_DTM
100
AcDbPoint
 10
296625.0
 20
697760.0
 30
38.67
  0
TEXT
  5
58E
330
344
100
AcDbEntity
  8
MM_DTM_TEXT
100
AcDbText
 10
296625.0
 20
697760.8
 30
0.0
 40
0.6600000000000001
  1
38.67
100
AcDbText
  0
POINT
  5
58F
330
344
100
AcDbEntity
  8
MM_DTM
100
AcDbPoint
 10
296630.0
 20
697760.0
 30
38.84
  0
TEXT
  5
590
330
344
100
AcDbEntity
  8
MM_DTM_TEXT
100
AcDbText
 10
296630.0
 20
697760.8
 30
0.0
 40
0.6600000000000001
  1
38.84
100
AcDbText
  0
POINT
  5
591
330
344
100
AcDbEntity
  8
MM_DTM
100
AcDbPoint
 10
296530.0
 20
697765.0
 30
38.73
  0
TEXT
  5
592
330
344
100
AcDbEntity
  8
MM_DTM_TEXT
100
AcDbText
 10
296530.0
 20
697765.8000000001
 30
0.0
 40
0.6600000000000001
  1
38.73
100
AcDbText
  0
POINT
  5
593
330
344
100
AcDbEntity
  8
MM_DTM
100
AcDbPoint
 10
296535.0
 20
697765.0
 30
41.07
  0
TEXT
  5
594
330
344
100
AcDbEntity
  8
MM_DTM_TEXT
100
AcDbText
 10
296535.0
 20
697765.8000000001
 30
0.0
 40
0.6600000000000001
  1
41.07
100
AcDbText
  0
POINT
  5
595
330
344
100
AcDbEntity
  8
MM_DTM
100
AcDbPoint
 10
296540.0
 20
697765.0
 30
43.46
  0
TEXT
  5
596
330
344
100
AcDbEntity
  8
MM_DTM_TEXT
100
AcDbText
 10
296540.0
 20
697765.8000000001
 30
0.0
 40
0.6600000000000001
  1
43.46
100
AcDbText
  0
POINT
  5
597
330
344
100
AcDbEntity
  8
MM_DTM
100
AcDbPoint
 10
296545.0
 20
697765.0
 30
43.6
  0
TEXT
  5
598
330
344
100
AcDbEntity
  8
MM_DTM_TEXT
100
AcDbText
 10
296545.0
 20
697765.8000000001
 30
0.0
 40
0.6600000000000001
  1
43.60
100
AcDbText
  0
POINT
  5
599
330
344
100
AcDbEntity
  8
MM_DTM
100
AcDbPoint
 10
296550.0
 20
697765.0
 30
43.01
  0
TEXT
  5
59A
330
344
100
AcDbEntity
  8
MM_DTM_TEXT
100
AcDbText
 10
296550.0
 20
697765.8000000001
 30
0.0
 40
0.6600000000000001
  1
43.01
100
AcDbText
  0
POINT
  5
59B
330
344
100
AcDbEntity
  8
MM_DTM
100
AcDbPoint
 10
296555.0
 20
697765.0
 30
41.99
  0
TEXT
  5
59C
330
344
100
AcDbEntity
  8
MM_DTM_TEXT
100
AcDbText
 10
296555.0
 20
697765.8000000001
 30
0.0
 40
0.6600000000000001
  1
41.99
100
AcDbText
  0
POINT
  5
59D
330
344
100
AcDbEntity
  8
MM_DTM
100
AcDbPoint
 10
296560.0
 20
697765.0
 30
41.96
  0
TEXT
  5
59E
330
344
100
AcDbEntity
  8
MM_DTM_TEXT
100
AcDbText
 10
296560.0
 20
697765.8000000001
 30
0.0
 40
0.6600000000000001
  1
41.96
100
AcDbText
  0
POINT
  5
59F
330
344
100
AcDbEntity
  8
MM_DTM
100
AcDbPoint
 10
296565.0
 20
697765.0
 30
42.03
  0
TEXT
  5
5A0
330
344
100
AcDbEntity
  8
MM_DTM_TEXT
100
AcDbText
 10
296565.0
 20
697765.8000000001
 30
0.0
 40
0.6600000000000001
  1
42.03
100
AcDbText
  0
POINT
  5
5A1
330
344
100
AcDbEntity
  8
MM_DTM
100
AcDbPoint
 10
296570.0
 20
697765.0
 30
42.05
  0
TEXT
  5
5A2
330
344
100
AcDbEntity
  8
MM_DTM_TEXT
100
AcDbText
 10
296570.0
 20
697765.8000000001
 30
0.0
 40
0.6600000000000001
  1
42.05
100
AcDbText
  0
POINT
  5
5A3
330
344
100
AcDbEntity
  8
MM_DTM
100
AcDbPoint
 10
296575.0
 20
697765.0
 30
42.06999999999999
  0
TEXT
  5
5A4
330
344
100
AcDbEntity
  8
MM_DTM_TEXT
100
AcDbText
 10
296575.0
 20
697765.8000000001
 30
0.0
 40
0.6600000000000001
  1
42.07
100
AcDbText
  0
POINT
  5
5A5
330
344
100
AcDbEntity
  8
MM_DTM
100
AcDbPoint
 10
296580.0
 20
697765.0
 30
42.09
  0
TEXT
  5
5A6
330
344
100
AcDbEntity
  8
MM_DTM_TEXT
100
AcDbText
 10
296580.0
 20
697765.8000000001
 30
0.0
 40
0.6600000000000001
  1
42.09
100
AcDbText
  0
POINT
  5
5A7
330
344
100
AcDbEntity
  8
MM_DTM
100
AcDbPoint
 10
296585.0
 20
697765.0
 30
42.11
  0
TEXT
  5
5A8
330
344
100
AcDbEntity
  8
MM_DTM_TEXT
100
AcDbText
 10
296585.0
 20
697765.8000000001
 30
0.0
 40
0.6600000000000001
  1
42.11
100
AcDbText
  0
POINT
  5
5A9
330
344
100
AcDbEntity
  8
MM_DTM
100
AcDbPoint
 10
296590.0
 20
697765.0
 30
42.13
  0
TEXT
  5
5AA
330
344
100
AcDbEntity
  8
MM_DTM_TEXT
100
AcDbText
 10
296590.0
 20
697765.8000000001
 30
0.0
 40
0.6600000000000001
  1
42.13
100
AcDbText
  0
POINT
  5
5AB
330
344
100
AcDbEntity
  8
MM_DTM
100
AcDbPoint
 10
296595.0
 20
697765.0
 30
42.03
  0
TEXT
  5
5AC
330
344
100
AcDbEntity
  8
MM_DTM_TEXT
100
AcDbText
 10
296595.0
 20
697765.8000000001
 30
0.0
 40
0.6600000000000001
  1
42.03
100
AcDbText
  0
POINT
  5
5AD
330
344
100
AcDbEntity
  8
MM_DTM
100
AcDbPoint
 10
296600.0
 20
697765.0
 30
41.90999999999999
  0
TEXT
  5
5AE
330
344
100
AcDbEntity
  8
MM_DTM_TEXT
100
AcDbText
 10
296600.0
 20
697765.8000000001
 30
0.0
 40
0.6600000000000001
  1
41.91
100
AcDbText
  0
POINT
  5
5AF
330
344
100
AcDbEntity
  8
MM_DTM
100
AcDbPoint
 10
296605.0
 20
697765.0
 30
41.7
  0
TEXT
  5
5B0
330
344
100
AcDbEntity
  8
MM_DTM_TEXT
100
AcDbText
 10
296605.0
 20
697765.8000000001
 30
0.0
 40
0.6600000000000001
  1
41.70
100
AcDbText
  0
POINT
  5
5B1
330
344
100
AcDbEntity
  8
MM_DTM
100
AcDbPoint
 10
296610.0
 20
697765.0
 30
41.31
  0
TEXT
  5
5B2
330
344
100
AcDbEntity
  8
MM_DTM_TEXT
100
AcDbText
 10
296610.0
 20
697765.8000000001
 30
0.0
 40
0.6600000000000001
  1
41.31
100
AcDbText
  0
POINT
  5
5B3
330
344
100
AcDbEntity
  8
MM_DTM
100
AcDbPoint
 10
296615.0
 20
697765.0
 30
40.4
  0
TEXT
  5
5B4
330
344
100
AcDbEntity
  8
MM_DTM_TEXT
100
AcDbText
 10
296615.0
 20
697765.8000000001
 30
0.0
 40
0.6600000000000001
  1
40.40
100
AcDbText
  0
POINT
  5
5B5
330
344
100
AcDbEntity
  8
MM_DTM
100
AcDbPoint
 10
296620.0
 20
697765.0
 30
39.48
  0
TEXT
  5
5B6
330
344
100
AcDbEntity
  8
MM_DTM_TEXT
100
AcDbText
 10
296620.0
 20
697765.8000000001
 30
0.0
 40
0.6600000000000001
  1
39.48
100
AcDbText
  0
POINT
  5
5B7
330
344
100
AcDbEntity
  8
MM_DTM
100
AcDbPoint
 10
296625.0
 20
697765.0
 30
38.95
  0
TEXT
  5
5B8
330
344
100
AcDbEntity
  8
MM_DTM_TEXT
100
AcDbText
 10
296625.0
 20
697765.8000000001
 30
0.0
 40
0.6600000000000001
  1
38.95
100
AcDbText
  0
POINT
  5
5B9
330
344
100
AcDbEntity
  8
MM_DTM
100
AcDbPoint
 10
296630.0
 20
697765.0
 30
39.06
  0
TEXT
  5
5BA
330
344
100
AcDbEntity
  8
MM_DTM_TEXT
100
AcDbText
 10
296630.0
 20
697765.8000000001
 30
0.0
 40
0.6600000000000001
  1
39.06
100
AcDbText
  0
POINT
  5
5BB
330
344
100
AcDbEntity
  8
MM_DTM
100
AcDbPoint
 10
296530.0
 20
697770.0
 30
39.76
  0
TEXT
  5
5BC
330
344
100
AcDbEntity
  8
MM_DTM_TEXT
100
AcDbText
 10
296530.0
 20
697770.8000000001
 30
0.0
 40
0.6600000000000001
  1
39.76
100
AcDbText
  0
POINT
  5
5BD
330
344
100
AcDbEntity
  8
MM_DTM
100
AcDbPoint
 10
296535.0
 20
697770.0
 30
42.5
  0
TEXT
  5
5BE
330
344
100
AcDbEntity
  8
MM_DTM_TEXT
100
AcDbText
 10
296535.0
 20
697770.8000000001
 30
0.0
 40
0.6600000000000001
  1
42.50
100
AcDbText
  0
POINT
  5
5BF
330
344
100
AcDbEntity
  8
MM_DTM
100
AcDbPoint
 10
296540.0
 20
697770.0
 30
43.76
  0
TEXT
  5
5C0
330
344
100
AcDbEntity
  8
MM_DTM_TEXT
100
AcDbText
 10
296540.0
 20
697770.8000000001
 30
0.0
 40
0.6600000000000001
  1
43.76
100
AcDbText
  0
POINT
  5
5C1
330
344
100
AcDbEntity
  8
MM_DTM
100
AcDbPoint
 10
296545.0
 20
697770.0
 30
43.79
  0
TEXT
  5
5C2
330
344
100
AcDbEntity
  8
MM_DTM_TEXT
100
AcDbText
 10
296545.0
 20
697770.8000000001
 30
0.0
 40
0.6600000000000001
  1
43.79
100
AcDbText
  0
POINT
  5
5C3
330
344
100
AcDbEntity
  8
MM_DTM
100
AcDbPoint
 10
296550.0
 20
697770.0
 30
43.21
  0
TEXT
  5
5C4
330
344
100
AcDbEntity
  8
MM_DTM_TEXT
100
AcDbText
 10
296550.0
 20
697770.8000000001
 30
0.0
 40
0.6600000000000001
  1
43.21
100
AcDbText
  0
POINT
  5
5C5
330
344
100
AcDbEntity
  8
MM_DTM
100
AcDbPoint
 10
296555.0
 20
697770.0
 30
42.17
  0
TEXT
  5
5C6
330
344
100
AcDbEntity
  8
MM_DTM_TEXT
100
AcDbText
 10
296555.0
 20
697770.8000000001
 30
0.0
 40
0.6600000000000001
  1
42.17
100
AcDbText
  0
POINT
  5
5C7
330
344
100
AcDbEntity
  8
MM_DTM
100
AcDbPoint
 10
296560.0
 20
697770.0
 30
42.0
  0
TEXT
  5
5C8
330
344
100
AcDbEntity
  8
MM_DTM_TEXT
100
AcDbText
 10
296560.0
 20
697770.8000000001
 30
0.0
 40
0.6600000000000001
  1
42.00
100
AcDbText
  0
POINT
  5
5C9
330
344
100
AcDbEntity
  8
MM_DTM
100
AcDbPoint
 10
296565.0
 20
697770.0
 30
42.14
  0
TEXT
  5
5CA
330
344
100
AcDbEntity
  8
MM_DTM_TEXT
100
AcDbText
 10
296565.0
 20
697770.8000000001
 30
0.0
 40
0.6600000000000001
  1
42.14
100
AcDbText
  0
POINT
  5
5CB
330
344
100
AcDbEntity
  8
MM_DTM
100
AcDbPoint
 10
296570.0
 20
697770.0
 30
42.25999999999999
  0
TEXT
  5
5CC
330
344
100
AcDbEntity
  8
MM_DTM_TEXT
100
AcDbText
 10
296570.0
 20
697770.8000000001
 30
0.0
 40
0.6600000000000001
  1
42.26
100
AcDbText
  0
POINT
  5
5CD
330
344
100
AcDbEntity
  8
MM_DTM
100
AcDbPoint
 10
296575.0
 20
697770.0
 30
42.28
  0
TEXT
  5
5CE
330
344
100
AcDbEntity
  8
MM_DTM_TEXT
100
AcDbText
 10
296575.0
 20
697770.8000000001
 30
0.0
 40
0.6600000000000001
  1
42.28
100
AcDbText
  0
POINT
  5
5CF
330
344
100
AcDbEntity
  8
MM_DTM
100
AcDbPoint
 10
296580.0
 20
697770.0
 30
42.29999999999999
  0
TEXT
  5
5D0
330
344
100
AcDbEntity
  8
MM_DTM_TEXT
100
AcDbText
 10
296580.0
 20
697770.8000000001
 30
0.0
 40
0.6600000000000001
  1
42.30
100
AcDbText
  0
POINT
  5
5D1
330
344
100
AcDbEntity
  8
MM_DTM
100
AcDbPoint
 10
296585.0
 20
697770.0
 30
42.32
  0
TEXT
  5
5D2
330
344
100
AcDbEntity
  8
MM_DTM_TEXT
100
AcDbText
 10
296585.0
 20
697770.8000000001
 30
0.0
 40
0.6600000000000001
  1
42.32
100
AcDbText
  0
POINT
  5
5D3
330
344
100
AcDbEntity
  8
MM_DTM
100
AcDbPoint
 10
296590.0
 20
697770.0
 30
42.34
  0
TEXT
  5
5D4
330
344
100
AcDbEntity
  8
MM_DTM_TEXT
100
AcDbText
 10
296590.0
 20
697770.8000000001
 30
0.0
 40
0.6600000000000001
  1
42.34
100
AcDbText
  0
POINT
  5
5D5
330
344
100
AcDbEntity
  8
MM_DTM
100
AcDbPoint
 10
296595.0
 20
697770.0
 30
42.25999999999999
  0
TEXT
  5
5D6
330
344
100
AcDbEntity
  8
MM_DTM_TEXT
100
AcDbText
 10
296595.0
 20
697770.8000000001
 30
0.0
 40
0.6600000000000001
  1
42.26
100
AcDbText
  0
POINT
  5
5D7
330
344
100
AcDbEntity
  8
MM_DTM
100
AcDbPoint
 10
296600.0
 20
697770.0
 30
42.14
  0
TEXT
  5
5D8
330
344
100
AcDbEntity
  8
MM_DTM_TEXT
100
AcDbText
 10
296600.0
 20
697770.8000000001
 30
0.0
 40
0.6600000000000001
  1
42.14
100
AcDbText
  0
POINT
  5
5D9
330
344
100
AcDbEntity
  8
MM_DTM
100
AcDbPoint
 10
296605.0
 20
697770.0
 30
42.00999999999999
  0
TEXT
  5
5DA
330
344
100
AcDbEntity
  8
MM_DTM_TEXT
100
AcDbText
 10
296605.0
 20
697770.8000000001
 30
0.0
 40
0.6600000000000001
  1
42.01
100
AcDbText
  0
POINT
  5
5DB
330
344
100
AcDbEntity
  8
MM_DTM
100
AcDbPoint
 10
296610.0
 20
697770.0
 30
41.68999999999999
  0
TEXT
  5
5DC
330
344
100
AcDbEntity
  8
MM_DTM_TEXT
100
AcDbText
 10
296610.0
 20
697770.8000000001
 30
0.0
 40
0.6600000000000001
  1
41.69
100
AcDbText
  0
POINT
  5
5DD
330
344
100
AcDbEntity
  8
MM_DTM
100
AcDbPoint
 10
296615.0
 20
697770.0
 30
40.77
  0
TEXT
  5
5DE
330
344
100
AcDbEntity
  8
MM_DTM_TEXT
100
AcDbText
 10
296615.0
 20
697770.8000000001
 30
0.0
 40
0.6600000000000001
  1
40.77
100
AcDbText
  0
POINT
  5
5DF
330
344
100
AcDbEntity
  8
MM_DTM
100
AcDbPoint
 10
296620.0
 20
697770.0
 30
39.85
  0
TEXT
  5
5E0
330
344
100
AcDbEntity
  8
MM_DTM_TEXT
100
AcDbText
 10
296620.0
 20
697770.8000000001
 30
0.0
 40
0.6600000000000001
  1
39.85
100
AcDbText
  0
POINT
  5
5E1
330
344
100
AcDbEntity
  8
MM_DTM
100
AcDbPoint
 10
296625.0
 20
697770.0
 30
39.23
  0
TEXT
  5
5E2
330
344
100
AcDbEntity
  8
MM_DTM_TEXT
100
AcDbText
 10
296625.0
 20
697770.8000000001
 30
0.0
 40
0.6600000000000001
  1
39.23
100
AcDbText
  0
POINT
  5
5E3
330
344
100
AcDbEntity
  8
MM_DTM
100
AcDbPoint
 10
296630.0
 20
697770.0
 30
39.34000000000001
  0
TEXT
  5
5E4
330
344
100
AcDbEntity
  8
MM_DTM_TEXT
100
AcDbText
 10
296630.0
 20
697770.8000000001
 30
0.0
 40
0.6600000000000001
  1
39.34
100
AcDbText
  0
POINT
  5
5E5
330
344
100
AcDbEntity
  8
MM_DTM
100
AcDbPoint
 10
296530.0
 20
697775.0
 30
40.48
  0
TEXT
  5
5E6
330
344
100
AcDbEntity
  8
MM_DTM_TEXT
100
AcDbText
 10
296530.0
 20
697775.8000000001
 30
0.0
 40
0.6600000000000001
  1
40.48
100
AcDbText
  0
POINT
  5
5E7
330
344
100
AcDbEntity
  8
MM_DTM
100
AcDbPoint
 10
296535.0
 20
697775.0
 30
42.21
  0
TEXT
  5
5E8
330
344
100
AcDbEntity
  8
MM_DTM_TEXT
100
AcDbText
 10
296535.0
 20
697775.8000000001
 30
0.0
 40
0.6600000000000001
  1
42.21
100
AcDbText
  0
POINT
  5
5E9
330
344
100
AcDbEntity
  8
MM_DTM
100
AcDbPoint
 10
296540.0
 20
697775.0
 30
43.6
  0
TEXT
  5
5EA
330
344
100
AcDbEntity
  8
MM_DTM_TEXT
100
AcDbText
 10
296540.0
 20
697775.8000000001
 30
0.0
 40
0.6600000000000001
  1
43.60
100
AcDbText
  0
POINT
  5
5EB
330
344
100
AcDbEntity
  8
MM_DTM
100
AcDbPoint
 10
296545.0
 20
697775.0
 30
43.97
  0
TEXT
  5
5EC
330
344
100
AcDbEntity
  8
MM_DTM_TEXT
100
AcDbText
 10
296545.0
 20
697775.8000000001
 30
0.0
 40
0.6600000000000001
  1
43.97
100
AcDbText
  0
POINT
  5
5ED
330
344
100
AcDbEntity
  8
MM_DTM
100
AcDbPoint
 10
296550.0
 20
697775.0
 30
43.39
  0
TEXT
  5
5EE
330
344
100
AcDbEntity
  8
MM_DTM_TEXT
100
AcDbText
 10
296550.0
 20
697775.8000000001
 30
0.0
 40
0.6600000000000001
  1
43.39
100
AcDbText
  0
POINT
  5
5EF
330
344
100
AcDbEntity
  8
MM_DTM
100
AcDbPoint
 10
296555.0
 20
697775.0
 30
42.35999999999999
  0
TEXT
  5
5F0
330
344
100
AcDbEntity
  8
MM_DTM_TEXT
100
AcDbText
 10
296555.0
 20
697775.8000000001
 30
0.0
 40
0.6600000000000001
  1
42.36
100
AcDbText
  0
POINT
  5
5F1
330
344
100
AcDbEntity
  8
MM_DTM
100
AcDbPoint
 10
296560.0
 20
697775.0
 30
42.03999999999999
  0
TEXT
  5
5F2
330
344
100
AcDbEntity
  8
MM_DTM_TEXT
100
AcDbText
 10
296560.0
 20
697775.8000000001
 30
0.0
 40
0.6600000000000001
  1
42.04
100
AcDbText
  0
POINT
  5
5F3
330
344
100
AcDbEntity
  8
MM_DTM
100
AcDbPoint
 10
296565.0
 20
697775.0
 30
42.17999999999999
  0
TEXT
  5
5F4
330
344
100
AcDbEntity
  8
MM_DTM_TEXT
100
AcDbText
 10
296565.0
 20
697775.8000000001
 30
0.0
 40
0.6600000000000001
  1
42.18
100
AcDbText
  0
POINT
  5
5F5
330
344
100
AcDbEntity
  8
MM_DTM
100
AcDbPoint
 10
296570.0
 20
697775.0
 30
42.31
  0
TEXT
  5
5F6
330
344
100
AcDbEntity
  8
MM_DTM_TEXT
100
AcDbText
 10
296570.0
 20
697775.8000000001
 30
0.0
 40
0.6600000000000001
  1
42.31
100
AcDbText
  0
POINT
  5
5F7
330
344
100
AcDbEntity
  8
MM_DTM
100
AcDbPoint
 10
296575.0
 20
697775.0
 30
42.45
  0
TEXT
  5
5F8
330
344
100
AcDbEntity
  8
MM_DTM_TEXT
100
AcDbText
 10
296575.0
 20
697775.8000000001
 30
0.0
 40
0.6600000000000001
  1
42.45
100
AcDbText
  0
POINT
  5
5F9
330
344
100
AcDbEntity
  8
MM_DTM
100
AcDbPoint
 10
296580.0
 20
697775.0
 30
42.5
  0
TEXT
  5
5FA
330
344
100
AcDbEntity
  8
MM_DTM_TEXT
100
AcDbText
 10
296580.0
 20
697775.8000000001
 30
0.0
 40
0.6600000000000001
  1
42.50
100
AcDbText
  0
POINT
  5
5FB
330
344
100
AcDbEntity
  8
MM_DTM
100
AcDbPoint
 10
296585.0
 20
697775.0
 30
42.52
  0
TEXT
  5
5FC
330
344
100
AcDbEntity
  8
MM_DTM_TEXT
100
AcDbText
 10
296585.0
 20
697775.8000000001
 30
0.0
 40
0.6600000000000001
  1
42.52
100
AcDbText
  0
POINT
  5
5FD
330
344
100
AcDbEntity
  8
MM_DTM
100
AcDbPoint
 10
296590.0
 20
697775.0
 30
42.54
  0
TEXT
  5
5FE
330
344
100
AcDbEntity
  8
MM_DTM_TEXT
100
AcDbText
 10
296590.0
 20
697775.8000000001
 30
0.0
 40
0.6600000000000001
  1
42.54
100
AcDbText
  0
POINT
  5
5FF
330
344
100
AcDbEntity
  8
MM_DTM
100
AcDbPoint
 10
296595.0
 20
697775.0
 30
42.49
  0
TEXT
  5
600
330
344
100
AcDbEntity
  8
MM_DTM_TEXT
100
AcDbText
 10
296595.0
 20
697775.8000000001
 30
0.0
 40
0.6600000000000001
  1
42.49
100
AcDbText
  0
POINT
  5
601
330
344
100
AcDbEntity
  8
MM_DTM
100
AcDbPoint
 10
296600.0
 20
697775.0
 30
42.37
  0
TEXT
  5
602
330
344
100
AcDbEntity
  8
MM_DTM_TEXT
100
AcDbText
 10
296600.0
 20
697775.8000000001
 30
0.0
 40
0.6600000000000001
  1
42.37
100
AcDbText
  0
POINT
  5
603
330
344
100
AcDbEntity
  8
MM_DTM
100
AcDbPoint
 10
296605.0
 20
697775.0
 30
42.24
  0
TEXT
  5
604
330
344
100
AcDbEntity
  8
MM_DTM_TEXT
100
AcDbText
 10
296605.0
 20
697775.8000000001
 30
0.0
 40
0.6600000000000001
  1
42.24
100
AcDbText
  0
POINT
  5
605
330
344
100
AcDbEntity
  8
MM_DTM
100
AcDbPoint
 10
296610.0
 20
697775.0
 30
41.79999999999999
  0
TEXT
  5
606
330
344
100
AcDbEntity
  8
MM_DTM_TEXT
100
AcDbText
 10
296610.0
 20
697775.8000000001
 30
0.0
 40
0.6600000000000001
  1
41.80
100
AcDbText
  0
POINT
  5
607
330
344
100
AcDbEntity
  8
MM_DTM
100
AcDbPoint
 10
296615.0
 20
697775.0
 30
41.00999999999999
  0
TEXT
  5
608
330
344
100
AcDbEntity
  8
MM_DTM_TEXT
100
AcDbText
 10
296615.0
 20
697775.8000000001
 30
0.0
 40
0.6600000000000001
  1
41.01
100
AcDbText
  0
POINT
  5
609
330
344
100
AcDbEntity
  8
MM_DTM
100
AcDbPoint
 10
296620.0
 20
697775.0
 30
40.22
  0
TEXT
  5
60A
330
344
100
AcDbEntity
  8
MM_DTM_TEXT
100
AcDbText
 10
296620.0
 20
697775.8000000001
 30
0.0
 40
0.6600000000000001
  1
40.22
100
AcDbText
  0
POINT
  5
60B
330
344
100
AcDbEntity
  8
MM_DTM
100
AcDbPoint
 10
296625.0
 20
697775.0
 30
39.52
  0
TEXT
  5
60C
330
344
100
AcDbEntity
  8
MM_DTM_TEXT
100
AcDbText
 10
296625.0
 20
697775.8000000001
 30
0.0
 40
0.6600000000000001
  1
39.52
100
AcDbText
  0
POINT
  5
60D
330
344
100
AcDbEntity
  8
MM_DTM
100
AcDbPoint
 10
296630.0
 20
697775.0
 30
39.22
  0
TEXT
  5
60E
330
344
100
AcDbEntity
  8
MM_DTM_TEXT
100
AcDbText
 10
296630.0
 20
697775.8000000001
 30
0.0
 40
0.6600000000000001
  1
39.22
100
AcDbText
  0
POINT
  5
60F
330
344
100
AcDbEntity
  8
MM_DTM
100
AcDbPoint
 10
296530.0
 20
697780.0
 30
40.95
  0
TEXT
  5
610
330
344
100
AcDbEntity
  8
MM_DTM_TEXT
100
AcDbText
 10
296530.0
 20
697780.8
 30
0.0
 40
0.6600000000000001
  1
40.95
100
AcDbText
  0
POINT
  5
611
330
344
100
AcDbEntity
  8
MM_DTM
100
AcDbPoint
 10
296535.0
 20
697780.0
 30
42.06
  0
TEXT
  5
612
330
344
100
AcDbEntity
  8
MM_DTM_TEXT
100
AcDbText
 10
296535.0
 20
697780.8
 30
0.0
 40
0.6600000000000001
  1
42.06
100
AcDbText
  0
POINT
  5
613
330
344
100
AcDbEntity
  8
MM_DTM
100
AcDbPoint
 10
296540.0
 20
697780.0
 30
42.93999999999999
  0
TEXT
  5
614
330
344
100
AcDbEntity
  8
MM_DTM_TEXT
100
AcDbText
 10
296540.0
 20
697780.8
 30
0.0
 40
0.6600000000000001
  1
42.94
100
AcDbText
  0
POINT
  5
615
330
344
100
AcDbEntity
  8
MM_DTM
100
AcDbPoint
 10
296545.0
 20
697780.0
 30
43.25999999999999
  0
TEXT
  5
616
330
344
100
AcDbEntity
  8
MM_DTM_TEXT
100
AcDbText
 10
296545.0
 20
697780.8
 30
0.0
 40
0.6600000000000001
  1
43.26
100
AcDbText
  0
POINT
  5
617
330
344
100
AcDbEntity
  8
MM_DTM
100
AcDbPoint
 10
296550.0
 20
697780.0
 30
43.57999999999999
  0
TEXT
  5
618
330
344
100
AcDbEntity
  8
MM_DTM_TEXT
100
AcDbText
 10
296550.0
 20
697780.8
 30
0.0
 40
0.6600000000000001
  1
43.58
100
AcDbText
  0
POINT
  5
619
330
344
100
AcDbEntity
  8
MM_DTM
100
AcDbPoint
 10
296555.0
 20
697780.0
 30
42.54
  0
TEXT
  5
61A
330
344
100
AcDbEntity
  8
MM_DTM_TEXT
100
AcDbText
 10
296555.0
 20
697780.8
 30
0.0
 40
0.6600000000000001
  1
42.54
100
AcDbText
  0
POINT
  5
61B
330
344
100
AcDbEntity
  8
MM_DTM
100
AcDbPoint
 10
296560.0
 20
697780.0
 30
42.08
  0
TEXT
  5
61C
330
344
100
AcDbEntity
  8
MM_DTM_TEXT
100
AcDbText
 10
296560.0
 20
697780.8
 30
0.0
 40
0.6600000000000001
  1
42.08
100
AcDbText
  0
POINT
  5
61D
330
344
100
AcDbEntity
  8
MM_DTM
100
AcDbPoint
 10
296565.0
 20
697780.0
 30
42.22
  0
TEXT
  5
61E
330
344
100
AcDbEntity
  8
MM_DTM_TEXT
100
AcDbText
 10
296565.0
 20
697780.8
 30
0.0
 40
0.6600000000000001
  1
42.22
100
AcDbText
  0
POINT
  5
61F
330
344
100
AcDbEntity
  8
MM_DTM
100
AcDbPoint
 10
296570.0
 20
697780.0
 30
42.35
  0
TEXT
  5
620
330
344
100
AcDbEntity
  8
MM_DTM_TEXT
100
AcDbText
 10
296570.0
 20
697780.8
 30
0.0
 40
0.6600000000000001
  1
42.35
100
AcDbText
  0
POINT
  5
621
330
344
100
AcDbEntity
  8
MM_DTM
100
AcDbPoint
 10
296575.0
 20
697780.0
 30
42.49
  0
TEXT
  5
622
330
344
100
AcDbEntity
  8
MM_DTM_TEXT
100
AcDbText
 10
296575.0
 20
697780.8
 30
0.0
 40
0.6600000000000001
  1
42.49
100
AcDbText
  0
POINT
  5
623
330
344
100
AcDbEntity
  8
MM_DTM
100
AcDbPoint
 10
296580.0
 20
697780.0
 30
42.63
  0
TEXT
  5
624
330
344
100
AcDbEntity
  8
MM_DTM_TEXT
100
AcDbText
 10
296580.0
 20
697780.8
 30
0.0
 40
0.6600000000000001
  1
42.63
100
AcDbText
  0
POINT
  5
625
330
344
100
AcDbEntity
  8
MM_DTM
100
AcDbPoint
 10
296585.0
 20
697780.0
 30
42.72999999999999
  0
TEXT
  5
626
330
344
100
AcDbEntity
  8
MM_DTM_TEXT
100
AcDbText
 10
296585.0
 20
697780.8
 30
0.0
 40
0.6600000000000001
  1
42.73
100
AcDbText
  0
POINT
  5
627
330
344
100
AcDbEntity
  8
MM_DTM
100
AcDbPoint
 10
296590.0
 20
697780.0
 30
42.75
  0
TEXT
  5
628
330
344
100
AcDbEntity
  8
MM_DTM_TEXT
100
AcDbText
 10
296590.0
 20
697780.8
 30
0.0
 40
0.6600000000000001
  1
42.75
100
AcDbText
  0
POINT
  5
629
330
344
100
AcDbEntity
  8
MM_DTM
100
AcDbPoint
 10
296595.0
 20
697780.0
 30
42.72999999999999
  0
TEXT
  5
62A
330
344
100
AcDbEntity
  8
MM_DTM_TEXT
100
AcDbText
 10
296595.0
 20
697780.8
 30
0.0
 40
0.6600000000000001
  1
42.73
100
AcDbText
  0
POINT
  5
62B
330
344
100
AcDbEntity
  8
MM_DTM
100
AcDbPoint
 10
296600.0
 20
697780.0
 30
42.6
  0
TEXT
  5
62C
330
344
100
AcDbEntity
  8
MM_DTM_TEXT
100
AcDbText
 10
296600.0
 20
697780.8
 30
0.0
 40
0.6600000000000001
  1
42.60
100
AcDbText
  0
POINT
  5
62D
330
344
100
AcDbEntity
  8
MM_DTM
100
AcDbPoint
 10
296605.0
 20
697780.0
 30
42.24
  0
TEXT
  5
62E
330
344
100
AcDbEntity
  8
MM_DTM_TEXT
100
AcDbText
 10
296605.0
 20
697780.8
 30
0.0
 40
0.6600000000000001
  1
42.24
100
AcDbText
  0
POINT
  5
62F
330
344
100
AcDbEntity
  8
MM_DTM
100
AcDbPoint
 10
296610.0
 20
697780.0
 30
41.68
  0
TEXT
  5
630
330
344
100
AcDbEntity
  8
MM_DTM_TEXT
100
AcDbText
 10
296610.0
 20
697780.8
 30
0.0
 40
0.6600000000000001
  1
41.68
100
AcDbText
  0
POINT
  5
631
330
344
100
AcDbEntity
  8
MM_DTM
100
AcDbPoint
 10
296615.0
 20
697780.0
 30
40.89
  0
TEXT
  5
632
330
344
100
AcDbEntity
  8
MM_DTM_TEXT
100
AcDbText
 10
296615.0
 20
697780.8
 30
0.0
 40
0.6600000000000001
  1
40.89
100
AcDbText
  0
POINT
  5
633
330
344
100
AcDbEntity
  8
MM_DTM
100
AcDbPoint
 10
296620.0
 20
697780.0
 30
40.2
  0
TEXT
  5
634
330
344
100
AcDbEntity
  8
MM_DTM_TEXT
100
AcDbText
 10
296620.0
 20
697780.8
 30
0.0
 40
0.6600000000000001
  1
40.20
100
AcDbText
  0
POINT
  5
635
330
344
100
AcDbEntity
  8
MM_DTM
100
AcDbPoint
 10
296625.0
 20
697780.0
 30
39.74
  0
TEXT
  5
636
330
344
100
AcDbEntity
  8
MM_DTM_TEXT
100
AcDbText
 10
296625.0
 20
697780.8
 30
0.0
 40
0.6600000000000001
  1
39.74
100
AcDbText
  0
POINT
  5
637
330
344
100
AcDbEntity
  8
MM_DTM
100
AcDbPoint
 10
296630.0
 20
697780.0
 30
39.96
  0
TEXT
  5
638
330
344
100
AcDbEntity
  8
MM_DTM_TEXT
100
AcDbText
 10
296630.0
 20
697780.8
 30
0.0
 40
0.6600000000000001
  1
39.96
100
AcDbText
  0
POINT
  5
639
330
344
100
AcDbEntity
  8
MM_DTM
100
AcDbPoint
 10
296530.0
 20
697785.0
 30
42.61999999999999
  0
TEXT
  5
63A
330
344
100
AcDbEntity
  8
MM_DTM_TEXT
100
AcDbText
 10
296530.0
 20
697785.8000000001
 30
0.0
 40
0.6600000000000001
  1
42.62
100
AcDbText
  0
POINT
  5
63B
330
344
100
AcDbEntity
  8
MM_DTM
100
AcDbPoint
 10
296535.0
 20
697785.0
 30
42.69
  0
TEXT
  5
63C
330
344
100
AcDbEntity
  8
MM_DTM_TEXT
100
AcDbText
 10
296535.0
 20
697785.8000000001
 30
0.0
 40
0.6600000000000001
  1
42.69
100
AcDbText
  0
POINT
  5
63D
330
344
100
AcDbEntity
  8
MM_DTM
100
AcDbPoint
 10
296540.0
 20
697785.0
 30
42.28
  0
TEXT
  5
63E
330
344
100
AcDbEntity
  8
MM_DTM_TEXT
100
AcDbText
 10
296540.0
 20
697785.8000000001
 30
0.0
 40
0.6600000000000001
  1
42.28
100
AcDbText
  0
POINT
  5
63F
330
344
100
AcDbEntity
  8
MM_DTM
100
AcDbPoint
 10
296545.0
 20
697785.0
 30
42.43
  0
TEXT
  5
640
330
344
100
AcDbEntity
  8
MM_DTM_TEXT
100
AcDbText
 10
296545.0
 20
697785.8000000001
 30
0.0
 40
0.6600000000000001
  1
42.43
100
AcDbText
  0
POINT
  5
641
330
344
100
AcDbEntity
  8
MM_DTM
100
AcDbPoint
 10
296550.0
 20
697785.0
 30
42.75
  0
TEXT
  5
642
330
344
100
AcDbEntity
  8
MM_DTM_TEXT
100
AcDbText
 10
296550.0
 20
697785.8000000001
 30
0.0
 40
0.6600000000000001
  1
42.75
100
AcDbText
  0
POINT
  5
643
330
344
100
AcDbEntity
  8
MM_DTM
100
AcDbPoint
 10
296555.0
 20
697785.0
 30
42.72999999999999
  0
TEXT
  5
644
330
344
100
AcDbEntity
  8
MM_DTM_TEXT
100
AcDbText
 10
296555.0
 20
697785.8000000001
 30
0.0
 40
0.6600000000000001
  1
42.73
100
AcDbText
  0
POINT
  5
645
330
344
100
AcDbEntity
  8
MM_DTM
100
AcDbPoint
 10
296560.0
 20
697785.0
 30
42.11999999999999
  0
TEXT
  5
646
330
344
100
AcDbEntity
  8
MM_DTM_TEXT
100
AcDbText
 10
296560.0
 20
697785.8000000001
 30
0.0
 40
0.6600000000000001
  1
42.12
100
AcDbText
  0
POINT
  5
647
330
344
100
AcDbEntity
  8
MM_DTM
100
AcDbPoint
 10
296565.0
 20
697785.0
 30
42.25999999999999
  0
TEXT
  5
648
330
344
100
AcDbEntity
  8
MM_DTM_TEXT
100
AcDbText
 10
296565.0
 20
697785.8000000001
 30
0.0
 40
0.6600000000000001
  1
42.26
100
AcDbText
  0
POINT
  5
649
330
344
100
AcDbEntity
  8
MM_DTM
100
AcDbPoint
 10
296570.0
 20
697785.0
 30
42.38999999999999
  0
TEXT
  5
64A
330
344
100
AcDbEntity
  8
MM_DTM_TEXT
100
AcDbText
 10
296570.0
 20
697785.8000000001
 30
0.0
 40
0.6600000000000001
  1
42.39
100
AcDbText
  0
POINT
  5
64B
330
344
100
AcDbEntity
  8
MM_DTM
100
AcDbPoint
 10
296575.0
 20
697785.0
 30
42.53
  0
TEXT
  5
64C
330
344
100
AcDbEntity
  8
MM_DTM_TEXT
100
AcDbText
 10
296575.0
 20
697785.8000000001
 30
0.0
 40
0.6600000000000001
  1
42.53
100
AcDbText
  0
POINT
  5
64D
330
344
100
AcDbEntity
  8
MM_DTM
100
AcDbPoint
 10
296580.0
 20
697785.0
 30
42.66
  0
TEXT
  5
64E
330
344
100
AcDbEntity
  8
MM_DTM_TEXT
100
AcDbText
 10
296580.0
 20
697785.8000000001
 30
0.0
 40
0.6600000000000001
  1
42.66
100
AcDbText
  0
POINT
  5
64F
330
344
100
AcDbEntity
  8
MM_DTM
100
AcDbPoint
 10
296585.0
 20
697785.0
 30
42.8
  0
TEXT
  5
650
330
344
100
AcDbEntity
  8
MM_DTM_TEXT
100
AcDbText
 10
296585.0
 20
697785.8000000001
 30
0.0
 40
0.6600000000000001
  1
42.80
100
AcDbText
  0
POINT
  5
651
330
344
100
AcDbEntity
  8
MM_DTM
100
AcDbPoint
 10
296590.0
 20
697785.0
 30
42.93999999999999
  0
TEXT
  5
652
330
344
100
AcDbEntity
  8
MM_DTM_TEXT
100
AcDbText
 10
296590.0
 20
697785.8000000001
 30
0.0
 40
0.6600000000000001
  1
42.94
100
AcDbText
  0
POINT
  5
653
330
344
100
AcDbEntity
  8
MM_DTM
100
AcDbPoint
 10
296595.0
 20
697785.0
 30
42.96
  0
TEXT
  5
654
330
344
100
AcDbEntity
  8
MM_DTM_TEXT
100
AcDbText
 10
296595.0
 20
697785.8000000001
 30
0.0
 40
0.6600000000000001
  1
42.96
100
AcDbText
  0
POINT
  5
655
330
344
100
AcDbEntity
  8
MM_DTM
100
AcDbPoint
 10
296600.0
 20
697785.0
 30
42.64999999999999
  0
TEXT
  5
656
330
344
100
AcDbEntity
  8
MM_DTM_TEXT
100
AcDbText
 10
296600.0
 20
697785.8000000001
 30
0.0
 40
0.6600000000000001
  1
42.65
100
AcDbText
  0
POINT
  5
657
330
344
100
AcDbEntity
  8
MM_DTM
100
AcDbPoint
 10
296605.0
 20
697785.0
 30
42.09999999999999
  0
TEXT
  5
658
330
344
100
AcDbEntity
  8
MM_DTM_TEXT
100
AcDbText
 10
296605.0
 20
697785.8000000001
 30
0.0
 40
0.6600000000000001
  1
42.10
100
AcDbText
  0
POINT
  5
659
330
344
100
AcDbEntity
  8
MM_DTM
100
AcDbPoint
 10
296610.0
 20
697785.0
 30
41.56
  0
TEXT
  5
65A
330
344
100
AcDbEntity
  8
MM_DTM_TEXT
100
AcDbText
 10
296610.0
 20
697785.8000000001
 30
0.0
 40
0.6600000000000001
  1
41.56
100
AcDbText
  0
POINT
  5
65B
330
344
100
AcDbEntity
  8
MM_DTM
100
AcDbPoint
 10
296615.0
 20
697785.0
 30
40.99
  0
TEXT
  5
65C
330
344
100
AcDbEntity
  8
MM_DTM_TEXT
100
AcDbText
 10
296615.0
 20
697785.8000000001
 30
0.0
 40
0.6600000000000001
  1
40.99
100
AcDbText
  0
POINT
  5
65D
330
344
100
AcDbEntity
  8
MM_DTM
100
AcDbPoint
 10
296620.0
 20
697785.0
 30
40.52999999999999
  0
TEXT
  5
65E
330
344
100
AcDbEntity
  8
MM_DTM_TEXT
100
AcDbText
 10
296620.0
 20
697785.8000000001
 30
0.0
 40
0.6600000000000001
  1
40.53
100
AcDbText
  0
POINT
  5
65F
330
344
100
AcDbEntity
  8
MM_DTM
100
AcDbPoint
 10
296625.0
 20
697785.0
 30
40.07
  0
TEXT
  5
660
330
344
100
AcDbEntity
  8
MM_DTM_TEXT
100
AcDbText
 10
296625.0
 20
697785.8000000001
 30
0.0
 40
0.6600000000000001
  1
40.07
100
AcDbText
  0
POINT
  5
661
330
344
100
AcDbEntity
  8
MM_DTM
100
AcDbPoint
 10
296630.0
 20
697785.0
 30
39.82
  0
TEXT
  5
662
330
344
100
AcDbEntity
  8
MM_DTM_TEXT
100
AcDbText
 10
296630.0
 20
697785.8000000001
 30
0.0
 40
0.6600000000000001
  1
39.82
100
AcDbText
  0
POINT
  5
663
330
344
100
AcDbEntity
  8
MM_DTM
100
AcDbPoint
 10
296530.0
 20
697790.0
 30
44.1
  0
TEXT
  5
664
330
344
100
AcDbEntity
  8
MM_DTM_TEXT
100
AcDbText
 10
296530.0
 20
697790.8000000001
 30
0.0
 40
0.6600000000000001
  1
44.10
100
AcDbText
  0
POINT
  5
665
330
344
100
AcDbEntity
  8
MM_DTM
100
AcDbPoint
 10
296535.0
 20
697790.0
 30
43.57999999999999
  0
TEXT
  5
666
330
344
100
AcDbEntity
  8
MM_DTM_TEXT
100
AcDbText
 10
296535.0
 20
697790.8000000001
 30
0.0
 40
0.6600000000000001
  1
43.58
100
AcDbText
  0
POINT
  5
667
330
344
100
AcDbEntity
  8
MM_DTM
100
AcDbPoint
 10
296540.0
 20
697790.0
 30
43.15
  0
TEXT
  5
668
330
344
100
AcDbEntity
  8
MM_DTM_TEXT
100
AcDbText
 10
296540.0
 20
697790.8000000001
 30
0.0
 40
0.6600000000000001
  1
43.15
100
AcDbText
  0
POINT
  5
669
330
344
100
AcDbEntity
  8
MM_DTM
100
AcDbPoint
 10
296545.0
 20
697790.0
 30
42.78999999999999
  0
TEXT
  5
66A
330
344
100
AcDbEntity
  8
MM_DTM_TEXT
100
AcDbText
 10
296545.0
 20
697790.8000000001
 30
0.0
 40
0.6600000000000001
  1
42.79
100
AcDbText
  0
POINT
  5
66B
330
344
100
AcDbEntity
  8
MM_DTM
100
AcDbPoint
 10
296550.0
 20
697790.0
 30
42.43
  0
TEXT
  5
66C
330
344
100
AcDbEntity
  8
MM_DTM_TEXT
100
AcDbText
 10
296550.0
 20
697790.8000000001
 30
0.0
 40
0.6600000000000001
  1
42.43
100
AcDbText
  0
POINT
  5
66D
330
344
100
AcDbEntity
  8
MM_DTM
100
AcDbPoint
 10
296555.0
 20
697790.0
 30
42.24
  0
TEXT
  5
66E
330
344
100
AcDbEntity
  8
MM_DTM_TEXT
100
AcDbText
 10
296555.0
 20
697790.8000000001
 30
0.0
 40
0.6600000000000001
  1
42.24
100
AcDbText
  0
POINT
  5
66F
330
344
100
AcDbEntity
  8
MM_DTM
100
AcDbPoint
 10
296560.0
 20
697790.0
 30
42.16
  0
TEXT
  5
670
330
344
100
AcDbEntity
  8
MM_DTM_TEXT
100
AcDbText
 10
296560.0
 20
697790.8000000001
 30
0.0
 40
0.6600000000000001
  1
42.16
100
AcDbText
  0
POINT
  5
671
330
344
100
AcDbEntity
  8
MM_DTM
100
AcDbPoint
 10
296565.0
 20
697790.0
 30
42.29999999999999
  0
TEXT
  5
672
330
344
100
AcDbEntity
  8
MM_DTM_TEXT
100
AcDbText
 10
296565.0
 20
697790.8000000001
 30
0.0
 40
0.6600000000000001
  1
42.30
100
AcDbText
  0
POINT
  5
673
330
344
100
AcDbEntity
  8
MM_DTM
100
AcDbPoint
 10
296570.0
 20
697790.0
 30
42.43
  0
TEXT
  5
674
330
344
100
AcDbEntity
  8
MM_DTM_TEXT
100
AcDbText
 10
296570.0
 20
697790.8000000001
 30
0.0
 40
0.6600000000000001
  1
42.43
100
AcDbText
  0
POINT
  5
675
330
344
100
AcDbEntity
  8
MM_DTM
100
AcDbPoint
 10
296575.0
 20
697790.0
 30
42.57
  0
TEXT
  5
676
330
344
100
AcDbEntity
  8
MM_DTM_TEXT
100
AcDbText
 10
296575.0
 20
697790.8000000001
 30
0.0
 40
0.6600000000000001
  1
42.57
100
AcDbText
  0
POINT
  5
677
330
344
100
AcDbEntity
  8
MM_DTM
100
AcDbPoint
 10
296580.0
 20
697790.0
 30
42.72
  0
TEXT
  5
678
330
344
100
AcDbEntity
  8
MM_DTM_TEXT
100
AcDbText
 10
296580.0
 20
697790.8000000001
 30
0.0
 40
0.6600000000000001
  1
42.72
100
AcDbText
  0
POINT
  5
679
330
344
100
AcDbEntity
  8
MM_DTM
100
AcDbPoint
 10
296585.0
 20
697790.0
 30
42.88
  0
TEXT
  5
67A
330
344
100
AcDbEntity
  8
MM_DTM_TEXT
100
AcDbText
 10
296585.0
 20
697790.8000000001
 30
0.0
 40
0.6600000000000001
  1
42.88
100
AcDbText
  0
POINT
  5
67B
330
344
100
AcDbEntity
  8
MM_DTM
100
AcDbPoint
 10
296590.0
 20
697790.0
 30
43.04999999999999
  0
TEXT
  5
67C
330
344
100
AcDbEntity
  8
MM_DTM_TEXT
100
AcDbText
 10
296590.0
 20
697790.8000000001
 30
0.0
 40
0.6600000000000001
  1
43.05
100
AcDbText
  0
POINT
  5
67D
330
344
100
AcDbEntity
  8
MM_DTM
100
AcDbPoint
 10
296595.0
 20
697790.0
 30
43.21
  0
TEXT
  5
67E
330
344
100
AcDbEntity
  8
MM_DTM_TEXT
100
AcDbText
 10
296595.0
 20
697790.8000000001
 30
0.0
 40
0.6600000000000001
  1
43.21
100
AcDbText
  0
POINT
  5
67F
330
344
100
AcDbEntity
  8
MM_DTM
100
AcDbPoint
 10
296600.0
 20
697790.0
 30
42.64999999999999
  0
TEXT
  5
680
330
344
100
AcDbEntity
  8
MM_DTM_TEXT
100
AcDbText
 10
296600.0
 20
697790.8000000001
 30
0.0
 40
0.6600000000000001
  1
42.65
100
AcDbText
  0
POINT
  5
681
330
344
100
AcDbEntity
  8
MM_DTM
100
AcDbPoint
 10
296605.0
 20
697790.0
 30
42.14
  0
TEXT
  5
682
330
344
100
AcDbEntity
  8
MM_DTM_TEXT
100
AcDbText
 10
296605.0
 20
697790.8000000001
 30
0.0
 40
0.6600000000000001
  1
42.14
100
AcDbText
  0
POINT
  5
683
330
344
100
AcDbEntity
  8
MM_DTM
100
AcDbPoint
 10
296610.0
 20
697790.0
 30
41.7
  0
TEXT
  5
684
330
344
100
AcDbEntity
  8
MM_DTM_TEXT
100
AcDbText
 10
296610.0
 20
697790.8000000001
 30
0.0
 40
0.6600000000000001
  1
41.70
100
AcDbText
  0
POINT
  5
685
330
344
100
AcDbEntity
  8
MM_DTM
100
AcDbPoint
 10
296615.0
 20
697790.0
 30
41.32
  0
TEXT
  5
686
330
344
100
AcDbEntity
  8
MM_DTM_TEXT
100
AcDbText
 10
296615.0
 20
697790.8000000001
 30
0.0
 40
0.6600000000000001
  1
41.32
100
AcDbText
  0
POINT
  5
687
330
344
100
AcDbEntity
  8
MM_DTM
100
AcDbPoint
 10
296620.0
 20
697790.0
 30
40.86999999999999
  0
TEXT
  5
688
330
344
100
AcDbEntity
  8
MM_DTM_TEXT
100
AcDbText
 10
296620.0
 20
697790.8000000001
 30
0.0
 40
0.6600000000000001
  1
40.87
100
AcDbText
  0
POINT
  5
689
330
344
100
AcDbEntity
  8
MM_DTM
100
AcDbPoint
 10
296625.0
 20
697790.0
 30
40.40999999999999
  0
TEXT
  5
68A
330
344
100
AcDbEntity
  8
MM_DTM_TEXT
100
AcDbText
 10
296625.0
 20
697790.8000000001
 30
0.0
 40
0.6600000000000001
  1
40.41
100
AcDbText
  0
POINT
  5
68B
330
344
100
AcDbEntity
  8
MM_DTM
100
AcDbPoint
 10
296630.0
 20
697790.0
 30
39.95
  0
TEXT
  5
68C
330
344
100
AcDbEntity
  8
MM_DTM_TEXT
100
AcDbText
 10
296630.0
 20
697790.8000000001
 30
0.0
 40
0.6600000000000001
  1
39.95
100
AcDbText
  0
ENDBLK
  5
68E
330
344
100
AcDbEntity
  8
0
100
AcDbBlockEnd
  0
BLOCK
  5
6A5
330
694
100
AcDbEntity
  8
0
100
AcDbBlockBegin
  2
Sample - 2m contours - dwg
 70
     0
 10
0.0
 20
0.0
 30
0.0
  3
Sample - 2m contours - dwg
  1

  0
LWPOLYLINE
  5
695
330
694
100
AcDbEntity
  8
MM_CONTOUR
100
AcDbPolyline
 90
      175
 70
     0
 43
0.0
 10
296563.320274
 20
697693.0
 10
296563.29215
 20
697693.29215
 10
296563.266693
 20
697694.0
 10
296563.2610100001
 20
697694.26101
 10
296563.252329
 20
697695.0
 10
296563.2756280001
 20
697695.2756279999
 10
296563.303362
 20
697696.0
 10
296563.369808
 20
697696.369808
 10
296563.426921
 20
697697.0
 10
296563.557561
 20
697697.557561
 10
296563.606994
 20
697698.0
 10
296563.794947
 20
697698.794947
 10
296563.811945
 20
697699.0
 10
296563.955283
 20
697699.955283
 10
296563.953782
 20
697700.0
 10
296564.0
 20
697700.6407640001
 10
296564.038324
 20
697701.0
 10
296564.0517510001
 20
697701.051751
 10
296564.115224
 20
697702.0
 10
296564.131727
 20
697702.131727
 10
296564.0
 20
697702.7818510001
 10
296563.975718
 20
697702.975718
 10
296563.961715
 20
697703.0
 10
296563.598987
 20
697703.598987
 10
296563.0
 20
697703.954329
 10
296562.978623
 20
697703.978623
 10
296562.9383520001
 20
697704.0
 10
296562.296222
 20
697704.2962220001
 10
296562.0
 20
697704.3468159999
 10
296561.559611
 20
697704.5596109999
 10
296561.0
 20
697704.714776
 10
296560.8157890001
 20
697704.815789
 10
296560.395153
 20
697705.0
 10
296560.095718
 20
697705.0957180001
 10
296560.0
 20
697705.119351
 10
296559.4100210001
 20
697705.4100210001
 10
296559.0
 20
697705.615447
 10
296558.768287
 20
697705.768287
 10
296558.45862
 20
697706.0
 10
296558.164685
 20
697706.1646850001
 10
296558.0
 20
697706.270969
 10
296557.56317
 20
697706.56317
 10
296557.032912
 20
697707.0
 10
296557.013737
 20
697707.0137369999
 10
296557.0
 20
697707.0255050001
 10
296556.4504320001
 20
697707.450432
 10
296556.0
 20
697707.887211
 10
296555.934849
 20
697707.934849
 10
296555.867108
 20
697708.0
 10
296555.4096110001
 20
697708.4096110001
 10
296555.0
 20
697708.8542700001
 10
296554.922774
 20
697708.9227739999
 10
296554.857072
 20
697709.0
 10
296554.4627750001
 20
697709.462775
 10
296554.057995
 20
697710.0
 10
296554.033986
 20
697710.033986
 10
296554.0
 20
697710.077197
 10
296553.618551
 20
697710.618551
 10
296553.327226
 20
697711.0
 10
296553.185224
 20
697711.185224
 10
296553.0
 20
697711.3716799999
 10
296552.7026550001
 20
697711.7026550001
 10
296552.37251
 20
697712.0
 10
296552.1864340001
 20
697712.186434
 10
296552.0
 20
697712.324462
 10
296551.622423
 20
697712.622423
 10
296551.026893
 20
697713.0
 10
296551.011892
 20
697713.011892
 10
296551.0
 20
697713.0193350001
 10
296550.39161
 20
697713.3916100001
 10
296550.0
 20
697713.607199
 10
296549.730982
 20
697713.730982
 10
296549.198329
 20
697714.0
 10
296549.0842440001
 20
697714.0842439999
 10
296549.0
 20
697714.1520109999
 10
296548.50452
 20
697714.50452
 10
296548.0
 20
697714.953503
 10
296547.973405
 20
697714.9734050001
 10
296547.9474650001
 20
697715.0
 10
296547.682658
 20
697715.6826580001
 10
296547.588724
 20
697716.0
 10
296547.656022
 20
697716.656022
 10
296547.697229
 20
697717.0
 10
296548.0
 20
697717.845774
 10
296548.054769
 20
697718.0
 10
296548.094142
 20
697718.0941419999
 10
296548.470489
 20
697719.0
 10
296548.653671
 20
697719.6536710001
 10
296548.74972
 20
697720.0
 10
296548.874637
 20
697720.874637
 10
296548.892112
 20
697721.0
 10
296549.0
 20
697721.7472359999
 10
296549.0357110001
 20
697722.0
 10
296549.0415640001
 20
697722.0415640001
 10
296549.175261
 20
697723.0
 10
296549.203646
 20
697723.2036460001
 10
296549.311292
 20
697724.0
 10
296549.35991
 20
697724.3599100001
 10
296549.441964
 20
697725.0
 10
296549.531901
 20
697725.5319010001
 10
296549.601249
 20
697726.0
 10
296549.760485
 20
697726.7604850002
 10
296549.802242
 20
697727.0
 10
296549.9970300001
 20
697727.99703
 10
296549.9975090001
 20
697728.0
 10
296550.0
 20
697728.0215050001
 10
296550.104265
 20
697729.0
 10
296550.092059
 20
697729.092059
 10
296550.065104
 20
697730.0
 10
296550.0535
 20
697730.0535000001
 10
296550.080268
 20
697731.0
 10
296550.066983
 20
697731.0669830001
 10
296550.144479
 20
697732.0
 10
296550.112224
 20
697732.1122239999
 10
296550.090184
 20
697733.0
 10
296550.06309
 20
697733.0630899999
 10
296550.0
 20
697733.3528249999
 10
296549.795525
 20
697733.795525
 10
296549.737188
 20
697734.0
 10
296549.3695360001
 20
697734.369536
 10
296549.0
 20
697734.870288
 10
296548.914868
 20
697734.9148680001
 10
296548.821452
 20
697735.0
 10
296548.218016
 20
697735.218016
 10
296548.0
 20
697735.3805550001
 10
296547.482871
 20
697735.482871
 10
296547.0
 20
697735.8662630002
 10
296546.878602
 20
697735.8786020001
 10
296546.761229
 20
697736.0
 10
296546.221863
 20
697736.221863
 10
296546.0
 20
697736.6373799999
 10
296545.7762000001
 20
697736.7762
 10
296545.721809
 20
697737.0
 10
296545.391419
 20
697737.3914190001
 10
296545.292833
 20
697738.0
 10
296545.1905550001
 20
697738.190555
 10
296545.071248
 20
697739.0
 10
296545.051936
 20
697739.051936
 10
296545.0
 20
697739.367889
 10
296544.792973
 20
697739.792973
 10
296544.7387670001
 20
697740.0
 10
296544.489273
 20
697740.489273
 10
296544.288795
 20
697741.0
 10
296544.188336
 20
697741.188336
 10
296544.0
 20
697741.586005
 10
296543.588093
 20
697741.588093
 10
296543.0
 20
697741.614261
 10
296542.48126
 20
697741.0
 10
296542.0
 20
697740.284491
 10
296541.8415070001
 20
697740.0
 10
296541.713362
 20
697739.7133619999
 10
296541.427545
 20
697739.0
 10
296541.07938
 20
697738.07938
 10
296541.0581010001
 20
697738.0
 10
296541.0
 20
697737.847267
 10
296540.363518
 20
697737.0
 10
296540.0
 20
697736.614801
 10
296539.33051
 20
697736.33051
 10
296539.0
 20
697736.1853899999
 10
296538.476427
 20
697736.0
 10
296538.0
 20
697735.8386529999
 10
296537.773263
 20
697735.7732630001
 10
296537.0
 20
697735.543319
 10
296536.375232
 20
697735.375232
 10
296536.0
 20
697735.271337
 10
296535.0
 20
697735.0
 10
296534.0
 20
697734.7261700001
 10
296533.629108
 20
697734.629108
 10
296533.0
 20
697734.464471
 10
296532.281395
 20
697734.281395
 10
296532.0
 20
697734.2097050001
 10
296531.1712330001
 20
697734.0
 10
296531.0
 20
697733.956822
 10
296530.941995
 20
697733.941995
 10
296530.0
 20
697733.701209
  0
TEXT
  5
696
330
694
100
AcDbEntity
  8
MM_CONTOUR_TEXT
100
AcDbText
 10
296547.961309
 20
697722.9716690001
 30
0.0
 40
0.6600000000000001
  1
38.00
 72
     1
 11
296549.171309
 21
697722.9716690001
 31
0.0
100
AcDbText
  0
LWPOLYLINE
  5
697
330
694
100
AcDbEntity
  8
MM_CONTOUR
100
AcDbPolyline
 90
      154
 70
     0
 43
0.0
 10
296588.284301
 20
697693.0
 10
296588.336062
 20
697693.3360620001
 10
296588.452774
 20
697694.0
 10
296588.29492
 20
697694.29492
 10
296588.075269
 20
697695.0
 10
296588.032885
 20
697695.032885
 10
296588.0
 20
697695.078214
 10
296587.227171
 20
697695.227171
 10
296587.0
 20
697695.463476
 10
296586.455674
 20
697695.455674
 10
296586.169664
 20
697696.0
 10
296586.049947
 20
697696.049947
 10
296586.0
 20
697696.208901
 10
296585.755856
 20
697696.755856
 10
296585.7736630001
 20
697697.0
 10
296585.5798610001
 20
697697.579861
 10
296585.6038380001
 20
697698.0
 10
296585.489798
 20
697698.489798
 10
296585.510274
 20
697699.0
 10
296585.44389
 20
697699.44389
 10
296585.45676
 20
697700.0
 10
296585.427598
 20
697700.4275979999
 10
296585.456125
 20
697701.0
 10
296585.445891
 20
697701.445891
 10
296585.4876730001
 20
697702.0
 10
296585.475706
 20
697702.475706
 10
296585.501424
 20
697703.0
 10
296585.471647
 20
697703.4716470001
 10
296585.461055
 20
697704.0
 10
296585.406923
 20
697704.406923
 10
296585.327225
 20
697705.0
 10
296585.255083
 20
697705.2550829999
 10
296585.0
 20
697705.9493670001
 10
296584.9812380001
 20
697705.981238
 10
296584.971275
 20
697706.0
 10
296584.521699
 20
697706.521699
 10
296584.147049
 20
697707.0
 10
296584.078198
 20
697707.078198
 10
296584.0
 20
697707.173549
 10
296583.587083
 20
697707.5870830001
 10
296583.338387
 20
697708.0
 10
296583.2035990001
 20
697708.203599
 10
296583.0
 20
697708.660376
 10
296582.8800790001
 20
697708.8800790001
 10
296582.848785
 20
697709.0
 10
296582.682879
 20
697709.682879
 10
296582.6337880001
 20
697710.0
 10
296582.589094
 20
697710.5890939999
 10
296582.522768
 20
697711.0
 10
296582.5211110001
 20
697711.521111
 10
296582.403352
 20
697712.0
 10
296582.486216
 20
697712.486216
 10
296582.394471
 20
697713.0
 10
296582.982987
 20
697713.9829870001
 10
296582.989143
 20
697714.0
 10
296583.0
 20
697714.006416
 10
296583.009452
 20
697714.009452
 10
296584.0
 20
697714.4288739999
 10
296584.682606
 20
697714.682606
 10
296585.0
 20
697714.816446
 10
296585.426621
 20
697715.0
 10
296586.0
 20
697715.225293
 10
296586.391419
 20
697715.3914190001
 10
296587.0
 20
697715.632209
 10
296587.847154
 20
697716.0
 10
296588.0
 20
697716.066297
 10
296588.12861
 20
697716.1286100001
 10
296589.0
 20
697716.518592
 10
296589.980056
 20
697716.9800560002
 10
296590.0
 20
697716.988942
 10
296590.026144
 20
697717.0
 10
296591.0
 20
697717.3823210001
 10
296591.569367
 20
697717.569367
 10
296592.0
 20
697717.7132120001
 10
296592.991862
 20
697717.991862
 10
296593.0
 20
697717.994291
 10
296593.021276
 20
697718.0
 10
296594.0
 20
697718.234388
 10
296594.318548
 20
697718.318548
 10
296595.0
 20
697718.500631
 10
296595.7078360001
 20
697718.707836
 10
296596.0
 20
697718.7940660001
 10
296596.700417
 20
697719.0
 10
296597.0
 20
697719.0848430002
 10
296597.121032
 20
697719.121032
 10
296598.0
 20
697719.376891
 10
296598.544067
 20
697719.544067
 10
296599.0
 20
697719.6812859999
 10
296600.0
 20
697720.0
 10
296601.0
 20
697720.361082
 10
296601.565849
 20
697720.5658489999
 10
296602.0
 20
697720.7260500001
 10
296602.77363
 20
697721.0
 10
296603.0
 20
697721.079747
 10
296603.115871
 20
697721.115871
 10
296604.0
 20
697721.412828
 10
296604.597774
 20
697721.5977740001
 10
296605.0
 20
697721.72818
 10
296605.88262
 20
697722.0
 10
296606.0
 20
697722.035272
 10
296606.050476
 20
697722.0504760001
 10
296607.0
 20
697722.334316
 10
296607.48313
 20
697722.48313
 10
296608.0
 20
697722.639811
 10
296608.9375880001
 20
697722.937588
 10
296609.0
 20
697722.957079
 10
296609.130428
 20
697723.0
 10
296610.0
 20
697723.2873130001
 10
296610.464505
 20
697723.4645050001
 10
296611.0
 20
697723.6668999999
 10
296611.769594
 20
697724.0
 10
296612.0
 20
697724.0965550001
 10
296612.153699
 20
697724.153699
 10
296613.0
 20
697724.483354
 10
296613.658496
 20
697724.6584959999
 10
296614.0
 20
697724.7593939999
 10
296614.843214
 20
697724.843214
 10
296615.0
 20
697724.8663100001
 10
296615.802775
 20
697724.802775
 10
296616.0
 20
697724.802518
 10
296616.670727
 20
697724.6707269999
 10
296617.0
 20
697724.6396100001
 10
296617.5077780001
 20
697724.5077780001
 10
296618.0
 20
697724.432506
 10
296618.337674
 20
697724.337674
 10
296619.0
 20
697724.214852
 10
296619.168879
 20
697724.1688790001
 10
296620.0
 20
697724.0029009999
 10
296620.0020570001
 20
697724.002057
 10
296620.008156
 20
697724.0
 10
296620.7451110001
 20
697723.7451109999
 10
296621.0
 20
697723.6829850001
 10
296621.464712
 20
697723.4647119999
 10
296622.0
 20
697723.2790660001
 10
296622.198484
 20
697723.198484
 10
296622.823953
 20
697723.0
 10
296622.955541
 20
697722.955541
 10
296623.0
 20
697722.944705
 10
296623.797531
 20
697722.797531
 10
296624.0
 20
697722.764258
 10
296624.8181690001
 20
697722.8181690001
 10
296625.0
 20
697722.8174370001
 10
296625.345206
 20
697723.0
 10
296626.0
 20
697723.412562
 10
296626.422127
 20
697724.0
 10
296627.0
 20
697724.8966239999
 10
296627.0549360001
 20
697725.0
 10
296627.366189
 20
697725.366189
 10
296627.895569
 20
697726.0
 10
296628.0
 20
697726.0791279999
 10
296628.170423
 20
697726.170423
 10
296629.0
 20
697726.658682
 10
296629.998218
 20
697727.0
 10
296630.0
 20
697727.0005390001
  0
TEXT
  5
698
330
694
100
AcDbEntity
  8
MM_CONTOUR_TEXT
100
AcDbText
 10
296594.5141420001
 20
697718.712649
 30
0.0
 40
0.6600000000000001
  1
38.00
 72
     1
 11
296595.724142
 21
697718.712649
 31
0.0
100
AcDbText
  0
LWPOLYLINE
  5
699
330
694
100
AcDbEntity
  8
MM_CONTOUR
100
AcDbPolyline
 90
       46
 70
     0
 43
0.0
 10
296619.956835
 20
697693.0
 10
296620.0
 20
697693.07545
 10
296620.515168
 20
697694.0
 10
296620.984412
 20
697694.9844119999
 10
296620.992063
 20
697695.0
 10
296621.0
 20
697695.019144
 10
296621.379396
 20
697696.0
 10
296621.5893510001
 20
697696.5893510001
 10
296621.734278
 20
697697.0
 10
296622.0
 20
697697.7589819999
 10
296622.087516
 20
697698.0
 10
296622.141696
 20
697698.1416960001
 10
296622.458222
 20
697699.0
 10
296622.7445840001
 20
697699.744584
 10
296622.840909
 20
697700.0
 10
296623.0
 20
697700.4186600002
 10
296623.234318
 20
697701.0
 10
296623.3836570001
 20
697701.3836570001
 10
296623.626818
 20
697702.0
 10
296624.0
 20
697702.9716130001
 10
296624.011813
 20
697703.0
 10
296624.019722
 20
697703.019722
 10
296624.423479
 20
697704.0
 10
296624.71141
 20
697704.71141
 10
296624.830853
 20
697705.0
 10
296625.0
 20
697705.411862
 10
296625.246646
 20
697706.0
 10
296625.425036
 20
697706.425036
 10
296625.668984
 20
697707.0
 10
296626.0
 20
697707.770102
 10
296626.0987650001
 20
697708.0
 10
296626.179689
 20
697708.1796890001
 10
296626.54539
 20
697709.0
 10
296627.0
 20
697709.9762659999
 10
296627.011747
 20
697710.0
 10
296627.025073
 20
697710.025073
 10
296627.553792
 20
697711.0
 10
296628.0
 20
697711.7901060001
 10
296628.1252510001
 20
697712.0
 10
296628.2764780001
 20
697712.276478
 10
296628.687486
 20
697713.0
 10
296629.0
 20
697713.6225439998
 10
296629.226017
 20
697714.0
 10
296629.51194
 20
697714.5119400001
 10
296629.7820400001
 20
697715.0
 10
296630.0
 20
697715.3888020001
  0
TEXT
  5
69A
330
694
100
AcDbEntity
  8
MM_CONTOUR_TEXT
100
AcDbText
 10
296623.365786
 20
697704.3763160001
 30
0.0
 40
0.6600000000000001
  1
38.00
 72
     1
 11
296624.575786
 21
697704.3763160001
 31
0.0
100
AcDbText
  0
LWPOLYLINE
  5
69B
330
694
100
AcDbEntity
  8
MM_CONTOUR
100
AcDbPolyline
 90
      347
 70
     0
 43
0.0
 10
296630.0
 20
697790.916422
 10
296629.044343
 20
697790.0
 10
296629.0
 20
697789.9558370001
 10
296628.3790550001
 20
697789.0
 10
296628.0
 20
697788.432011
 10
296627.758589
 20
697788.0
 10
296627.425743
 20
697787.4257429999
 10
296627.196302
 20
697787.0
 10
296627.0
 20
697786.659295
 10
296626.616106
 20
697786.0
 10
296626.0
 20
697785.0744840001
 10
296625.941873
 20
697785.0
 10
296625.27027
 20
697784.2702700001
 10
296625.027004
 20
697784.0
 10
296625.0
 20
697783.9770109999
 10
296624.7996150001
 20
697783.7996149999
 10
296624.0
 20
697783.0803580001
 10
296623.923416
 20
697783.0
 10
296623.0
 20
697782.062375
 10
296622.9475550001
 20
697782.0
 10
296622.801296
 20
697781.801296
 10
296622.208304
 20
697781.0
 10
296622.0
 20
697780.616503
 10
296621.712803
 20
697780.0
 10
296621.65705
 20
697779.6570500001
 10
296621.519223
 20
697779.0
 10
296621.541127
 20
697778.541127
 10
296621.5291640001
 20
697778.0
 10
296621.573923
 20
697777.5739229999
 10
296621.593139
 20
697777.0
 10
296621.607212
 20
697776.6072119999
 10
296621.595355
 20
697776.0
 10
296621.530682
 20
697775.530682
 10
296621.441897
 20
697775.0
 10
296621.15699
 20
697774.15699
 10
296621.102479
 20
697774.0
 10
296621.0
 20
697773.779016
 10
296620.640194
 20
697773.0
 10
296620.229143
 20
697772.229143
 10
296620.106836
 20
697772.0
 10
296620.0
 20
697771.8066600001
 10
296619.5739540001
 20
697771.0
 10
296619.175024
 20
697770.175024
 10
296619.0898060001
 20
697770.0
 10
296619.0
 20
697769.8002180002
 10
296618.6758980001
 20
697769.0
 10
296618.448119
 20
697768.4481189999
 10
296618.263557
 20
697768.0
 10
296618.0
 20
697767.3724680001
 10
296617.852066
 20
697767.0
 10
296617.7545010001
 20
697766.7545010001
 10
296617.45545
 20
697766.0
 10
296617.117663
 20
697765.1176630001
 10
296617.072314
 20
697765.0
 10
296617.0
 20
697764.8016739999
 10
296616.7142040001
 20
697764.0
 10
296616.567962
 20
697763.567962
 10
296616.3719380001
 20
697763.0
 10
296616.065544
 20
697762.065544
 10
296616.043553
 20
697762.0
 10
296616.0
 20
697761.8637129999
 10
296615.705972
 20
697761.0
 10
296615.556251
 20
697760.5562509999
 10
296615.368266
 20
697760.0
 10
296615.052997
 20
697759.0529970001
 10
296615.035192
 20
697759.0
 10
296615.0
 20
697758.891892
 10
296614.675894
 20
697758.0
 10
296614.47953
 20
697757.47953
 10
296614.303971
 20
697757.0
 10
296614.0
 20
697756.2125520001
 10
296613.9090610001
 20
697756.0
 10
296613.827024
 20
697755.827024
 10
296613.452499
 20
697755.0
 10
296613.0
 20
697754.089495
 10
296612.9487340001
 20
697754.0
 10
296612.8646360001
 20
697753.864636
 10
296612.344076
 20
697753.0
 10
296612.0
 20
697752.477497
 10
296611.639736
 20
697752.0
 10
296611.0
 20
697751.2090010001
 10
296610.815887
 20
697751.0
 10
296610.0
 20
697750.112816
 10
296609.885845
 20
697750.0
 10
296609.0
 20
697749.145477
 10
296608.8339150001
 20
697749.0
 10
296608.0
 20
697748.267104
 10
296607.678133
 20
697748.0
 10
296607.0
 20
697747.4365049999
 10
296606.467482
 20
697747.0
 10
296606.0
 20
697746.608219
 10
296605.304305
 20
697746.0
 10
296605.0
 20
697745.7183909999
 10
296604.23703
 20
697745.0
 10
296604.0
 20
697744.7626960001
 10
296603.236906
 20
697744.0
 10
296603.0
 20
697743.7482220001
 10
296602.303442
 20
697743.0
 10
296602.0
 20
697742.6611520001
 10
296601.4141870001
 20
697742.0
 10
296601.0
 20
697741.5419919999
 10
296600.507841
 20
697741.0
 10
296600.0
 20
697740.4965239999
 10
296599.501496
 20
697740.0
 10
296599.0
 20
697739.5657079999
 10
296598.329027
 20
697739.0
 10
296598.0
 20
697738.7586140001
 10
296597.282411
 20
697738.2824110001
 10
296597.0
 20
697738.0895429999
 10
296596.850313
 20
697738.0
 10
296596.0
 20
697737.5449190001
 10
296595.157221
 20
697737.157221
 10
296595.0
 20
697737.0823100002
 10
296594.7995
 20
697737.0
 10
296594.0
 20
697736.677912
 10
296593.4751610001
 20
697736.475161
 10
296593.0
 20
697736.2946300001
 10
296592.23455
 20
697736.0
 10
296592.0
 20
697735.9057790001
 10
296591.839442
 20
697735.8394420001
 10
296591.0
 20
697735.49841
 10
296590.1381300001
 20
697735.13813
 10
296590.0
 20
697735.080906
 10
296589.808869
 20
697735.0
 10
296589.0
 20
697734.652922
 10
296588.388846
 20
697734.388846
 10
296588.0
 20
697734.2209119999
 10
296587.487202
 20
697734.0
 10
296587.0
 20
697733.7899210001
 10
296586.633772
 20
697733.633772
 10
296586.0
 20
697733.363749
 10
296585.127683
 20
697733.0
 10
296585.0
 20
697732.946781
 10
296584.9108250001
 20
697732.9108250001
 10
296584.0
 20
697732.5437600001
 10
296583.249152
 20
697732.249152
 10
296583.0
 20
697732.1514820001
 10
296582.609088
 20
697732.0
 10
296582.0
 20
697731.764006
 10
296581.6143340001
 20
697731.6143340001
 10
296581.0
 20
697731.375856
 10
296580.041897
 20
697731.0
 10
296580.0
 20
697730.983607
 10
296579.9729730001
 20
697730.9729729999
 10
296579.0
 20
697730.588842
 10
296578.3231280001
 20
697730.323128
 10
296578.0
 20
697730.1956090001
 10
296577.5
 20
697730.0
 10
296577.0
 20
697729.8034979999
 10
296576.6772
 20
697729.6772000001
 10
296576.0
 20
697729.4115220001
 10
296575.03537
 20
697729.0353699999
 10
296575.0
 20
697729.021526
 10
296574.943698
 20
697729.0
 10
296574.0
 20
697728.645845
 10
296573.457491
 20
697728.457491
 10
296573.0
 20
697728.292366
 10
296572.149887
 20
697728.0
 10
296572.0
 20
697727.948815
 10
296571.919984
 20
697727.9199840001
 10
296571.0
 20
697727.5864160001
 10
296570.285904
 20
697727.2859040001
 10
296570.0
 20
697727.1685609998
 10
296569.708069
 20
697727.0
 10
296569.0
 20
697726.518427
 10
296568.470919
 20
697726.0
 10
296568.0
 20
697725.392552
 10
296567.721914
 20
697725.0
 10
296567.3858590001
 20
697724.385859
 10
296567.1669030001
 20
697724.0
 10
296567.0
 20
697723.6313119999
 10
296566.621596
 20
697723.0
 10
296566.1814880001
 20
697722.181488
 10
296566.083376
 20
697722.0
 10
296566.0
 20
697721.8400469999
 10
296565.250674
 20
697721.2506739999
 10
296565.0
 20
697721.057041
 10
296564.4389340001
 20
697721.438934
 10
296564.0
 20
697721.8779420001
 10
296563.961843
 20
697721.961843
 10
296563.950457
 20
697722.0
 10
296563.6644
 20
697722.6644000001
 10
296563.558735
 20
697723.0
 10
296563.3742140001
 20
697723.3742140001
 10
296563.070466
 20
697724.0
 10
296563.042405
 20
697724.0424050001
 10
296563.0
 20
697724.0892729999
 10
296562.6596770001
 20
697724.659677
 10
296562.393758
 20
697725.0
 10
296562.191482
 20
697725.1914819999
 10
296562.0
 20
697725.285886
 10
296561.6047090001
 20
697725.604709
 10
296561.0
 20
697725.9314090002
 10
296560.958714
 20
697725.9587140001
 10
296560.890924
 20
697726.0
 10
296560.278665
 20
697726.278665
 10
296560.0
 20
697726.3900970001
 10
296559.601185
 20
697726.6011850002
 10
296559.078313
 20
697727.0
 10
296559.029561
 20
697727.0295609999
 10
296559.0
 20
697727.0541439999
 10
296558.510887
 20
697727.510887
 10
296558.21992
 20
697728.0
 10
296558.124005
 20
697728.124005
 10
296558.0
 20
697728.364674
 10
296557.780638
 20
697728.7806380001
 10
296557.7167360001
 20
697729.0
 10
296557.5097190001
 20
697729.509719
 10
296557.341519
 20
697730.0
 10
296557.249866
 20
697730.2498660001
 10
296557.0
 20
697730.7393350002
 10
296556.9163820001
 20
697730.916382
 10
296556.867455
 20
697731.0
 10
296556.5318360001
 20
697731.531836
 10
296556.0773190001
 20
697732.0
 10
296556.042887
 20
697732.042887
 10
296556.0
 20
697732.072405
 10
296555.511365
 20
697732.511365
 10
296555.0
 20
697732.8800390001
 10
296554.9349090001
 20
697732.9349090002
 10
296554.871017
 20
697733.0
 10
296554.430246
 20
697733.430246
 10
296554.0
 20
697733.898062
 10
296553.9550540001
 20
697733.955054
 10
296553.929409
 20
697734.0
 10
296553.586795
 20
697734.5867950001
 10
296553.3653000001
 20
697735.0
 10
296553.246581
 20
697735.246581
 10
296553.0
 20
697735.6410310001
 10
296552.877195
 20
697735.877195
 10
296552.799
 20
697736.0
 10
296552.491206
 20
697736.4912060001
 10
296552.0014340001
 20
697737.0
 10
296552.000822
 20
697737.0008219999
 10
296552.0
 20
697737.0014219999
 10
296551.4951420001
 20
697737.495142
 10
296551.0
 20
697737.8179460001
 10
296550.892133
 20
697737.892133
 10
296550.71201
 20
697738.0
 10
296550.290483
 20
697738.290483
 10
296550.0
 20
697738.459495
 10
296549.6803680001
 20
697738.6803680001
 10
296549.304328
 20
697739.0
 10
296549.1555
 20
697739.1555
 10
296549.0
 20
697739.342861
 10
296548.72791
 20
697739.72791
 10
296548.59202
 20
697740.0
 10
296548.4226900001
 20
697740.4226899999
 10
296548.237547
 20
697741.0
 10
296548.188348
 20
697741.1883479999
 10
296548.0
 20
697741.9975850001
 10
296547.999564
 20
697741.9995640001
 10
296547.999486
 20
697742.0
 10
296547.864249
 20
697742.864249
 10
296547.8437070001
 20
697743.0
 10
296547.755451
 20
697743.7554510001
 10
296547.721884
 20
697744.0
 10
296547.658114
 20
697744.658114
 10
296547.611469
 20
697745.0
 10
296547.574715
 20
697745.574715
 10
296547.516506
 20
697746.0
 10
296547.508169
 20
697746.5081689999
 10
296547.442549
 20
697747.0
 10
296547.449445
 20
697747.449445
 10
296547.373899
 20
697748.0
 10
296547.384885
 20
697748.3848850001
 10
296547.2935010001
 20
697749.0
 10
296547.297489
 20
697749.2974890001
 10
296547.1801800001
 20
697750.0
 10
296547.202835
 20
697750.2028349999
 10
296547.170334
 20
697751.0
 10
296547.2345400001
 20
697751.23454
 10
296547.34301
 20
697752.0
 10
296547.4533530001
 20
697752.453353
 10
296547.502774
 20
697753.0
 10
296547.45579
 20
697753.4557899999
 10
296547.254559
 20
697754.0
 10
296547.127849
 20
697754.127849
 10
296547.0
 20
697754.206195
 10
296546.568415
 20
697754.568415
 10
296546.0
 20
697754.88933
 10
296545.9358969999
 20
697754.9358970001
 10
296545.824873
 20
697755.0
 10
296545.203801
 20
697755.203801
 10
296545.0
 20
697755.2553430001
 10
296544.457284
 20
697755.457284
 10
296544.0
 20
697755.597469
 10
296543.713785
 20
697755.713785
 10
296543.0
 20
697755.958695
 10
296542.970444
 20
697755.970444
 10
296542.888569
 20
697756.0
 10
296542.186664
 20
697756.1866640001
 10
296542.0
 20
697756.227138
 10
296541.386091
 20
697756.386091
 10
296541.0
 20
697756.4849630001
 10
296540.586632
 20
697756.5866319999
 10
296540.0
 20
697756.7742140002
 10
296539.8219040001
 20
697756.8219040001
 10
296539.469179
 20
697757.0
 10
296539.129447
 20
697757.129447
 10
296539.0
 20
697757.2105270001
 10
296538.492497
 20
697757.4924970001
 10
296538.047718
 20
697758.0
 10
296538.022174
 20
697758.022174
 10
296538.0
 20
697758.0545800001
 10
296537.5726460001
 20
697758.5726459999
 10
296537.39832
 20
697759.0
 10
296537.256511
 20
697759.256511
 10
296537.0
 20
697759.93501
 10
296536.978958
 20
697759.9789580001
 10
296536.972622
 20
697760.0
 10
296536.660653
 20
697760.660653
 10
296536.5064770001
 20
697761.0
 10
296536.330927
 20
697761.3309270001
 10
296536.0
 20
697761.858365
 10
296535.935632
 20
697761.9356319999
 10
296535.880957
 20
697762.0
 10
296535.459068
 20
697762.4590680001
 10
296535.0
 20
697762.916492
 10
296534.94818
 20
697762.9481800001
 10
296534.880461
 20
697763.0
 10
296534.3674880001
 20
697763.367488
 10
296534.0
 20
697763.682199
 10
296533.799759
 20
697763.799759
 10
296533.5887210001
 20
697764.0
 10
296533.281815
 20
697764.2818150001
 10
296533.0
 20
697764.6431000001
 10
296532.8237340001
 20
697764.823734
 10
296532.720651
 20
697765.0
 10
296532.424931
 20
697765.4249309999
 10
296532.130423
 20
697766.0
 10
296532.0807
 20
697766.0807000001
 10
296532.0
 20
697766.2398529999
 10
296531.7334150001
 20
697766.733415
 10
296531.619175
 20
697767.0
 10
296531.416277
 20
697767.4162770002
 10
296531.1665790001
 20
697768.0
 10
296531.117822
 20
697768.1178220001
 10
296531.0
 20
697768.416753
 10
296530.829606
 20
697768.8296060001
 10
296530.761336
 20
697769.0
 10
296530.570318
 20
697769.5703180001
 10
296530.4198150001
 20
697770.0
 10
296530.335785
 20
697770.3357850001
 10
296530.131943
 20
697771.0
 10
296530.109848
 20
697771.109848
 10
296530.0
 20
697771.4671150001
  0
TEXT
  5
69C
330
694
100
AcDbEntity
  8
MM_CONTOUR_TEXT
100
AcDbText
 10
296577.747183
 20
697730.5504430001
 30
0.0
 40
0.6600000000000001
  1
40.00
 72
     1
 11
296578.902183
 21
697730.5504430001
 31
0.0
100
AcDbText
  0
LWPOLYLINE
  5
69D
330
694
100
AcDbEntity
  8
MM_CONTOUR
100
AcDbPolyline
 90
       33
 70
     0
 43
0.0
 10
296614.203229
 20
697738.0
 10
296614.08609
 20
697738.08609
 10
296614.0
 20
697738.153389
 10
296613.636114
 20
697738.636114
 10
296613.421985
 20
697739.0
 10
296613.335373
 20
697739.3353730001
 10
296613.157001
 20
697740.0
 10
296613.249334
 20
697740.2493340001
 10
296613.4384580001
 20
697741.0
 10
296614.0
 20
697741.543046
 10
296614.795438
 20
697741.795438
 10
296615.0
 20
697741.8802310001
 10
296615.835329
 20
697741.8353290001
 10
296616.0
 20
697741.820608
 10
296616.64908
 20
697741.64908
 10
296617.0
 20
697741.470919
 10
296617.3169120001
 20
697741.316912
 10
296617.628311
 20
697741.0
 10
296617.775077
 20
697740.775077
 10
296618.0
 20
697740.268238
 10
296618.084206
 20
697740.0842060001
 10
296618.109209
 20
697740.0
 10
296618.077649
 20
697739.077649
 10
296618.083811
 20
697739.0
 10
296618.0
 20
697738.77885
 10
296617.521944
 20
697738.0
 10
296617.0
 20
697737.670298
 10
296616.646977
 20
697737.646977
 10
296616.0
 20
697737.466585
 10
296615.543197
 20
697737.543197
 10
296615.0
 20
697737.571948
 10
296614.712533
 20
697737.7125330001
 10
296614.203229
 20
697738.0
  0
TEXT
  5
69E
330
694
100
AcDbEntity
  8
MM_CONTOUR_TEXT
100
AcDbText
 10
296616.005124
 20
697741.393104
 30
0.0
 40
0.6600000000000001
  1
40.00
 72
     1
 11
296617.160124
 21
697741.393104
 31
0.0
100
AcDbText
  0
LWPOLYLINE
  5
69F
330
694
100
AcDbEntity
  8
MM_CONTOUR
100
AcDbPolyline
 90
      281
 70
     0
 43
0.0
 10
296607.7435500001
 20
697793.0
 10
296607.4808090001
 20
697792.480809
 10
296607.220531
 20
697792.0
 10
296607.0
 20
697791.4860220001
 10
296606.8122070001
 20
697791.0
 10
296606.742127
 20
697790.7421270001
 10
296606.514589
 20
697790.0
 10
296606.375699
 20
697789.3756989999
 10
296606.279363
 20
697789.0
 10
296606.106396
 20
697788.1063960001
 10
296606.0822800001
 20
697788.0
 10
296606.0
 20
697787.40834
 10
296605.946296
 20
697787.0
 10
296605.9443320001
 20
697786.944332
 10
296605.888275
 20
697786.0
 10
296605.893225
 20
697785.8932250001
 10
296605.924556
 20
697785.0
 10
296605.935687
 20
697784.935687
 10
296606.0
 20
697784.5743759999
 10
296606.087194
 20
697784.0871939999
 10
296606.101939
 20
697784.0
 10
296606.3106150001
 20
697783.310615
 10
296606.4041210001
 20
697783.0
 10
296606.560174
 20
697782.560174
 10
296606.764028
 20
697782.0
 10
296606.8235050001
 20
697781.823505
 10
296607.0
 20
697781.330743
 10
296607.083396
 20
697781.0833959999
 10
296607.1113760001
 20
697781.0
 10
296607.2930570001
 20
697780.2930569999
 10
296607.3723940001
 20
697780.0
 10
296607.477025
 20
697779.477025
 10
296607.58771
 20
697779.0
 10
296607.654053
 20
697778.6540529999
 10
296607.8120210001
 20
697778.0
 10
296607.836834
 20
697777.836834
 10
296608.0
 20
697777.0750859999
 10
296608.01166
 20
697777.0116600002
 10
296608.014368
 20
697777.0
 10
296608.11954
 20
697776.1195400001
 10
296608.140125
 20
697776.0
 10
296608.15052
 20
697775.1505200001
 10
296608.159651
 20
697775.0
 10
296608.057411
 20
697774.0574110001
 10
296608.054075
 20
697774.0
 10
296608.0
 20
697773.748517
 10
296607.787418
 20
697773.0
 10
296607.5567570001
 20
697772.5567569999
 10
296607.30007
 20
697772.0
 10
296607.0
 20
697771.5691090001
 10
296606.452248
 20
697771.0
 10
296606.0
 20
697770.6053600001
 10
296605.236742
 20
697770.0
 10
296605.0
 20
697769.8175180001
 10
296604.32761
 20
697769.3276100001
 10
296604.0
 20
697769.091598
 10
296603.83736
 20
697769.0
 10
296603.0
 20
697768.513111
 10
296602.006422
 20
697768.0
 10
296602.0
 20
697767.9965890001
 10
296601.9926360001
 20
697767.992636
 10
296601.0
 20
697767.487273
 10
296600.1529810001
 20
697767.0
 10
296600.0
 20
697766.910035
 10
296599.767675
 20
697766.7676750001
 10
296599.0
 20
697766.305306
 10
296598.4471410001
 20
697766.0
 10
296598.0
 20
697765.7566100001
 10
296597.52403
 20
697765.5240299999
 10
296597.0
 20
697765.2668890001
 10
296596.416031
 20
697765.0
 10
296596.0
 20
697764.810184
 10
296595.647249
 20
697764.647249
 10
296595.0
 20
697764.347826
 10
296594.331694
 20
697764.0
 10
296594.0
 20
697763.824619
 10
296593.5867580001
 20
697763.586758
 10
296593.0
 20
697763.255049
 10
296592.542164
 20
697763.0
 10
296592.0
 20
697762.6897510001
 10
296591.386364
 20
697762.3863640001
 10
296591.0
 20
697762.199614
 10
296590.392864
 20
697762.0
 10
296590.0
 20
697761.870968
 10
296589.855572
 20
697761.8555720001
 10
296589.0
 20
697761.7695230001
 10
296588.786509
 20
697761.786509
 10
296588.0
 20
697761.850801
 10
296587.874193
 20
697761.874193
 10
296587.194194
 20
697762.0
 10
296587.030539
 20
697762.0305390001
 10
296587.0
 20
697762.03599
 10
296586.203069
 20
697762.203069
 10
296586.0
 20
697762.2438640001
 10
296585.344584
 20
697762.3445840001
 10
296585.0
 20
697762.3958329999
 10
296584.4497420001
 20
697762.4497419999
 10
296584.0
 20
697762.4932649999
 10
296583.537229
 20
697762.5372290001
 10
296583.0
 20
697762.588187
 10
296582.623349
 20
697762.6233489999
 10
296582.0
 20
697762.681821
 10
296581.70889
 20
697762.70889
 10
296581.0
 20
697762.775228
 10
296580.794514
 20
697762.7945140001
 10
296580.0
 20
697762.869318
 10
296579.880623
 20
697762.880623
 10
296579.0
 20
697762.9640149999
 10
296578.9671280001
 20
697762.967128
 10
296578.62
 20
697763.0
 10
296578.053541
 20
697763.053541
 10
296578.0
 20
697763.058601
 10
296577.139896
 20
697763.1398960001
 10
296577.0
 20
697763.1531189999
 10
296576.226252
 20
697763.2262520001
 10
296576.0
 20
697763.2476370001
 10
296575.312608
 20
697763.312608
 10
296575.0
 20
697763.342155
 10
296574.400554
 20
697763.4005540001
 10
296574.0
 20
697763.439391
 10
296573.4904860001
 20
697763.490486
 10
296573.0
 20
697763.539217
 10
296572.580629
 20
697763.580629
 10
296572.0
 20
697763.6375600001
 10
296571.668365
 20
697763.6683650001
 10
296571.0
 20
697763.730604
 10
296570.7511960001
 20
697763.7511960001
 10
296570.0
 20
697763.814745
 10
296569.824922
 20
697763.8249220001
 10
296569.0
 20
697763.8718749999
 10
296568.876354
 20
697763.8763539999
 10
296568.0
 20
697763.9041100001
 10
296567.907452
 20
697763.907452
 10
296567.0
 20
697763.939104
 10
296566.942435
 20
697763.9424350001
 10
296566.081975
 20
697764.0
 10
296566.0055380001
 20
697764.005538
 10
296566.0
 20
697764.0061889999
 10
296565.130841
 20
697764.1308409999
 10
296565.0
 20
697764.157303
 10
296564.339146
 20
697764.339146
 10
296564.0
 20
697764.4665989998
 10
296563.6208360001
 20
697764.6208359999
 10
296563.0
 20
697764.9729890001
 10
296562.9817510001
 20
697764.981751
 10
296562.954545
 20
697765.0
 10
296562.4227190001
 20
697765.422719
 10
296562.0
 20
697765.9068300001
 10
296561.948206
 20
697765.9482060001
 10
296561.8998630001
 20
697766.0
 10
296561.530537
 20
697766.530537
 10
296561.310839
 20
697767.0
 10
296561.222716
 20
697767.2227159999
 10
296561.040283
 20
697768.0
 10
296561.031619
 20
697768.031619
 10
296561.0
 20
697768.227887
 10
296560.769194
 20
697768.7691939999
 10
296560.664289
 20
697769.0
 10
296560.4175820001
 20
697769.4175820001
 10
296560.0
 20
697770.0
 10
296559.0
 20
697769.97594
 10
296558.981355
 20
697769.9813550001
 10
296558.0
 20
697769.763175
 10
296557.023645
 20
697769.0
 10
296557.0
 20
697768.986358
 10
296556.394294
 20
697768.0
 10
296556.0
 20
697767.51665
 10
296555.807111
 20
697767.0
 10
296555.6485389999
 20
697766.6485390002
 10
296555.3782360001
 20
697766.0
 10
296555.0
 20
697765.2604170001
 10
296554.932213
 20
697765.0
 10
296554.912387
 20
697764.9123869999
 10
296554.697333
 20
697764.0
 10
296554.6352690001
 20
697763.635269
 10
296554.5075000001
 20
697763.0
 10
296554.3815860001
 20
697762.3815859999
 10
296554.296225
 20
697762.0
 10
296554.0
 20
697761.0917060001
 10
296553.9789300001
 20
697761.0
 10
296553.9597320001
 20
697760.959732
 10
296553.554556
 20
697760.0
 10
296553.0
 20
697759.403018
 10
296552.556667
 20
697759.0
 10
296552.0
 20
697758.7214159999
 10
296551.6406360001
 20
697758.640636
 10
296551.0
 20
697758.399305
 10
296550.320867
 20
697758.3208670001
 10
296550.0
 20
697758.2443839999
 10
296549.199225
 20
697758.1992250001
 10
296549.0
 20
697758.169898
 10
296548.138487
 20
697758.1384870001
 10
296548.0
 20
697758.1234359999
 10
296547.120037
 20
697758.1200370001
 10
296547.0
 20
697758.112368
 10
296546.146417
 20
697758.146417
 10
296546.0
 20
697758.1445760001
 10
296545.2179880001
 20
697758.2179880001
 10
296545.0
 20
697758.2278390001
 10
296544.309929
 20
697758.309929
 10
296544.0
 20
697758.3276939999
 10
296543.405681
 20
697758.4056810001
 10
296543.0
 20
697758.4303500001
 10
296542.514334
 20
697758.514334
 10
296542.0
 20
697758.574776
 10
296541.657898
 20
697758.6578979999
 10
296541.0
 20
697758.80724
 10
296540.856937
 20
697758.856937
 10
296540.5059570001
 20
697759.0
 10
296540.17465
 20
697759.1746499999
 10
296540.0
 20
697759.273544
 10
296539.623829
 20
697759.6238290001
 10
296539.291146
 20
697760.0
 10
296539.180821
 20
697760.1808210001
 10
296539.0
 20
697760.4665610001
 10
296538.8345920001
 20
697760.8345920001
 10
296538.758149
 20
697761.0
 10
296538.560351
 20
697761.560351
 10
296538.347931
 20
697762.0
 10
296538.2664070001
 20
697762.266407
 10
296538.0
 20
697762.7753010001
 10
296537.93501
 20
697762.9350099999
 10
296537.894677
 20
697763.0
 10
296537.629438
 20
697763.6294380001
 10
296537.372555
 20
697764.0
 10
296537.260169
 20
697764.260169
 10
296537.0
 20
697764.6415229999
 10
296536.8677
 20
697764.8676999999
 10
296536.762737
 20
697765.0
 10
296536.494505
 20
697765.4945050002
 10
296536.1316530001
 20
697766.0
 10
296536.0862010001
 20
697766.0862010001
 10
296536.0
 20
697766.2042810002
 10
296535.6850940001
 20
697766.685094
 10
296535.443009
 20
697767.0
 10
296535.278077
 20
697767.2780770001
 10
296535.0
 20
697767.6652560001
 10
296534.871668
 20
697767.871668
 10
296534.788985
 20
697768.0
 10
296534.526503
 20
697768.526503
 10
296534.2720190001
 20
697769.0
 10
296534.2028750001
 20
697769.202875
 10
296534.0
 20
697769.7314550001
 10
296533.935029
 20
697769.9350290001
 10
296533.912862
 20
697770.0
 10
296533.809139
 20
697770.8091390001
 10
296533.7750170001
 20
697771.0
 10
296533.812071
 20
697771.812071
 10
296533.8060070001
 20
697772.0
 10
296533.954662
 20
697772.954662
 10
296533.957562
 20
697773.0
 10
296534.0
 20
697773.2197139999
 10
296534.1837130001
 20
697774.0
 10
296534.2349530001
 20
697774.234953
 10
296534.3523320001
 20
697775.0
 10
296534.418768
 20
697775.418768
 10
296534.474597
 20
697776.0
 10
296534.582919
 20
697776.5829189999
 10
296534.63624
 20
697777.0
 10
296534.758339
 20
697777.758339
 10
296534.7813090001
 20
697778.0
 10
296534.843579
 20
697778.843579
 10
296534.8405590001
 20
697779.0
 10
296534.768777
 20
697779.7687769999
 10
296534.7105360001
 20
697780.0
 10
296534.5275070001
 20
697780.527507
 10
296534.2103
 20
697781.0
 10
296534.126147
 20
697781.1261470001
 10
296534.0
 20
697781.219646
 10
296533.635178
 20
697781.6351779999
 10
296533.094123
 20
697782.0
 10
296533.0396530001
 20
697782.0396529999
 10
296533.0
 20
697782.055027
 10
296532.420711
 20
697782.420711
 10
296532.0
 20
697782.5785330001
 10
296531.7266700001
 20
697782.7266700001
 10
296531.0
 20
697782.9703250001
 10
296530.979567
 20
697782.9795670001
 10
296530.905614
 20
697783.0
 10
296530.2139210001
 20
697783.2139210001
 10
296530.0
 20
697783.2478429999
  0
TEXT
  5
6A0
330
694
100
AcDbEntity
  8
MM_CONTOUR_TEXT
100
AcDbText
 10
296565.334428
 20
697763.9690619999
 30
0.0
 40
0.6600000000000001
  1
42.00
 72
     1
 11
296566.544428
 21
697763.9690619999
 31
0.0
100
AcDbText
  0
LWPOLYLINE
  5
6A1
330
694
100
AcDbEntity
  8
MM_CONTOUR
100
AcDbPolyline
 90
        7
 70
     0
 43
0.0
 10
296543.753774
 20
697774.0
 10
296544.0
 20
697774.169074
 10
296544.154201
 20
697774.154201
 10
296544.381161
 20
697774.0
 10
296544.0
 20
697773.6791799999
 10
296543.766324
 20
697773.766324
 10
296543.753774
 20
697774.0
  0
TEXT
  5
6A2
330
694
100
AcDbEntity
  8
MM_CONTOUR_TEXT
100
AcDbText
 10
296543.074141
 20
697773.9183390001
 30
0.0
 40
0.6600000000000001
  1
44.00
 72
     1
 11
296544.2841410001
 21
697773.9183390001
 31
0.0
100
AcDbText
  0
LWPOLYLINE
  5
6A3
330
694
100
AcDbEntity
  8
MM_CONTOUR
100
AcDbPolyline
 90
       12
 70
     0
 43
0.0
 10
296530.0
 20
697789.5692630001
 10
296530.948407
 20
697790.0
 10
296531.0
 20
697790.0324609999
 10
296531.089266
 20
697790.089266
 10
296532.0
 20
697790.669283
 10
296532.522866
 20
697791.0
 10
296533.0
 20
697791.342613
 10
296533.937908
 20
697791.9379079999
 10
296534.0
 20
697791.978666
 10
296534.0371260001
 20
697792.0
 10
296535.0
 20
697792.5357320001
 10
296535.9670110001
 20
697793.0
  0
TEXT
  5
6A4
330
694
100
AcDbEntity
  8
MM_CONTOUR_TEXT
100
AcDbText
 10
296531.752759
 20
697791.3158710001
 30
0.0
 40
0.6600000000000001
  1
44.00
 72
     1
 11
296532.962759
 21
697791.3158710001
 31
0.0
100
AcDbText
  0
ENDBLK
  5
6A6
330
694
100
AcDbEntity
  8
0
100
AcDbBlockEnd
  0
ENDSEC
  0
SECTION
  2
ENTITIES
  0
LWPOLYLINE
  5
7D
330
70
100
AcDbEntity
  8
16_-_INLAND_WATER
100
AcDbPolyline
 90
       22
 70
     0
 43
0.0
 10
296597.43
 20
697693.0
 10
296599.37
 20
697696.7000000001
 10
296600.81
 20
697698.39
 10
296601.85
 20
697700.2699999999
 10
296602.4500000001
 20
697701.4699999999
 10
296602.75
 20
697702.17
 10
296604.84
 20
697706.84
 10
296606.12
 20
697709.48
 10
296607.3
 20
697712.02
 10
296608.21
 20
697714.15
 10
296609.01
 20
697716.1800000001
 10
296610.0300000001
 20
697718.12
 10
296611.06
 20
697719.6500000001
 10
296612.1
 20
697721.0
 10
296613.04
 20
697722.13
 10
296613.14
 20
697722.33
 10
296614.4400000001
 20
697723.73
 10
296615.8400000001
 20
697725.03
 10
296617.04
 20
697726.43
 10
296618.34
 20
697728.5300000001
 10
296619.34
 20
697730.83
 10
296620.11
 20
697732.52
  0
LINE
  5
95
330
70
100
AcDbEntity
  8
25_-_BUILDING
100
AcDbLine
 10
296578.3400000001
 20
697733.26
 30
0.0
 11
296580.4
 21
697731.59
 31
0.0
  0
LWPOLYLINE
  5
96
330
70
100
AcDbEntity
  8
22_-_ROAD_OR_TRACK
100
AcDbPolyline
 90
        9
 70
     0
 43
0.0
 10
296590.14
 20
697779.83
 10
296589.44
 20
697779.63
 10
296588.8400000001
 20
697779.5300000001
 10
296588.1400000001
 20
697779.63
 10
296587.44
 20
697779.83
 10
296586.8400000001
 20
697780.13
 10
296586.34
 20
697780.5299999999
 10
296579.24
 20
697791.4300000001
 10
296578.23
 20
697793.0
  0
LWPOLYLINE
  5
A1
330
70
100
AcDbEntity
  8
25_-_BUILDING
100
AcDbPolyline
 90
        3
 70
     0
 43
0.0
 10
296553.1400000001
 20
697789.6300000001
 10
296549.14
 20
697792.63
 10
296549.42
 20
697793.0
  0
LINE
  5
A6
330
70
100
AcDbEntity
  8
25_-_BUILDING
100
AcDbLine
 10
296555.67
 20
697793.0
 30
0.0
 11
296553.1400000001
 21
697789.6300000001
 31
0.0
  0
LWPOLYLINE
  5
A7
330
70
100
AcDbEntity
  8
02_-_GENERAL_FEATURE
100
AcDbPolyline
 90
        3
 70
     0
 43
0.0
 10
296530.0
 20
697792.3800000001
 10
296534.54
 20
697792.5300000001
 10
296535.89
 20
697793.0
  0
LINE
  5
AC
330
70
100
AcDbEntity
  8
02_-_GENERAL_FEATURE
100
AcDbLine
 10
296530.0
 20
697763.75
 30
0.0
 11
296530.68
 21
697763.9
 31
0.0
  0
LWPOLYLINE
  5
AD
330
70
100
AcDbEntity
  8
02_-_GENERAL_FEATURE
100
AcDbPolyline
 90
        5
 70
     0
 43
0.0
 10
296552.0300000001
 20
697738.06
 10
296550.5200000001
 20
697745.8299999999
 10
296549.08
 20
697748.11
 10
296539.64
 20
697763.0300000001
 10
296538.24
 20
697764.93
  0
LWPOLYLINE
  5
B4
330
70
100
AcDbEntity
  8
25_-_BUILDING
100
AcDbPolyline
 90
        3
 70
     0
 43
0.0
 10
296577.65
 20
697747.6200000001
 10
296577.2600000001
 20
697747.93
 10
296575.37
 20
697745.5899999999
  0
LWPOLYLINE
  5
B9
330
70
100
AcDbEntity
  8
02_-_GENERAL_FEATURE
100
AcDbPolyline
 90
        3
 70
     0
 43
0.0
 10
296596.8200000001
 20
697772.08
 10
296595.44
 20
697775.8299999999
 10
296598.14
 20
697777.13
  0
LWPOLYLINE
  5
BE
330
70
100
AcDbEntity
  8
25_-_BUILDING
100
AcDbPolyline
 90
       11
 70
     0
 43
0.0
 10
296575.0
 20
697707.74
 10
296580.91
 20
697715.2600000001
 10
296593.1
 20
697705.6700000002
 10
296591.9600000001
 20
697704.2199999999
 10
296594.56
 20
697702.1800000001
 10
296593.97
 20
697701.43
 10
296591.65
 20
697698.48
 10
296589.05
 20
697700.52
 10
296587.19
 20
697698.15
 10
296575.2
 20
697707.58
 10
296575.0
 20
697707.74
  0
LWPOLYLINE
  5
D1
330
70
100
AcDbEntity
  8
02_-_GENERAL_FEATURE
100
AcDbPolyline
 90
       44
 70
     0
 43
0.0
 10
296556.47
 20
697715.28
 10
296571.65
 20
697716.21
 10
296571.8300000001
 20
697716.2199999999
 10
296578.68
 20
697719.3800000001
 10
296582.77
 20
697722.33
 10
296587.22
 20
697725.8500000001
 10
296591.82
 20
697729.85
 10
296592.33
 20
697730.31
 10
296592.85
 20
697730.76
 10
296593.37
 20
697731.1999999999
 10
296593.9
 20
697731.65
 10
296594.43
 20
697732.0899999999
 10
296594.96
 20
697732.5300000001
 10
296595.48
 20
697732.9799999999
 10
296595.99
 20
697733.4300000001
 10
296596.49
 20
697733.9
 10
296596.97
 20
697734.37
 10
296597.43
 20
697734.86
 10
296597.86
 20
697735.37
 10
296598.2700000001
 20
697735.8999999999
 10
296598.6500000001
 20
697736.45
 10
296599.25
 20
697737.5400000001
 10
296599.37
 20
697737.79
 10
296599.49
 20
697738.0400000001
 10
296599.61
 20
697738.2900000001
 10
296599.72
 20
697738.5500000001
 10
296599.8300000001
 20
697738.8000000001
 10
296599.93
 20
697739.0600000001
 10
296600.01
 20
697739.32
 10
296600.12
 20
697739.77
 10
296600.2100000001
 20
697740.47
 10
296600.19
 20
697741.1700000001
 10
296600.12
 20
697741.8800000001
 10
296599.88
 20
697743.27
 10
296599.74
 20
697743.96
 10
296599.58
 20
697744.65
 10
296599.39
 20
697745.34
 10
296599.17
 20
697746.01
 10
296598.93
 20
697746.67
 10
296598.6500000001
 20
697747.3299999999
 10
296598.05
 20
697748.5600000001
 10
296586.64
 20
697765.03
 10
296587.19
 20
697765.2900000001
 10
296586.93
 20
697765.6899999999
  0
LWPOLYLINE
  5
FF
330
70
100
AcDbEntity
  8
02_-_GENERAL_FEATURE
100
AcDbPolyline
 90
        4
 70
     0
 43
0.0
 10
296556.47
 20
697715.28
 10
296556.0700000001
 20
697717.33
 10
296552.05
 20
697737.98
 10
296552.0300000001
 20
697738.06
  0
LINE
  5
105
330
70
100
AcDbEntity
  8
02_-_GENERAL_FEATURE
100
AcDbLine
 10
296530.68
 20
697763.9
 30
0.0
 11
296530.0
 21
697764.3900000001
 31
0.0
  0
LWPOLYLINE
  5
106
330
70
100
AcDbEntity
  8
22_-_ROAD_OR_TRACK
100
AcDbPolyline
 90
       12
 70
     0
 43
0.0
 10
296584.18
 20
697770.0099999999
 10
296581.72
 20
697773.8600000001
 10
296581.8400000001
 20
697774.03
 10
296582.24
 20
697774.73
 10
296582.54
 20
697775.5300000001
 10
296582.64
 20
697776.3299999999
 10
296582.54
 20
697777.13
 10
296582.4400000001
 20
697778.03
 10
296582.04
 20
697779.0300000001
 10
296581.54
 20
697780.0300000001
 10
296580.94
 20
697780.9300000001
 10
296572.98
 20
697793.0
  0
LINE
  5
114
330
70
100
AcDbEntity
  8
25_-_BUILDING
100
AcDbLine
 10
296611.6400000001
 20
697777.4300000001
 30
0.0
 11
296614.1400000001
 21
697772.63
 31
0.0
  0
LWPOLYLINE
  5
115
330
70
100
AcDbEntity
  8
25_-_BUILDING
100
AcDbPolyline
 90
        3
 70
     0
 43
0.0
 10
296575.37
 20
697745.5899999999
 10
296577.17
 20
697744.1500000001
 10
296579.05
 20
697746.49
  0
LINE
  5
11A
330
70
100
AcDbEntity
  8
25_-_BUILDING
100
AcDbLine
 10
296579.05
 20
697746.49
 30
0.0
 11
296577.65
 21
697747.6200000001
 31
0.0
  0
LINE
  5
11B
330
70
100
AcDbEntity
  8
02_-_GENERAL_FEATURE
100
AcDbLine
 10
296538.24
 20
697764.93
 30
0.0
 11
296530.0
 21
697781.71
 31
0.0
  0
LWPOLYLINE
  5
11C
330
70
100
AcDbEntity
  8
02_-_GENERAL_FEATURE
100
AcDbPolyline
 90
        3
 70
     0
 43
0.0
 10
296583.67
 20
697769.6899999999
 10
296552.04
 20
697738.06
 10
296552.0300000001
 20
697738.06
  0
LINE
  5
121
330
70
100
AcDbEntity
  8
02_-_GENERAL_FEATURE
100
AcDbLine
 10
296586.93
 20
697765.6899999999
 30
0.0
 11
296584.18
 21
697770.0099999999
 31
0.0
  0
LWPOLYLINE
  5
122
330
70
100
AcDbEntity
  8
02_-_GENERAL_FEATURE
100
AcDbPolyline
 90
        5
 70
     0
 43
0.0
 10
296618.24
 20
697781.93
 10
296614.1400000001
 20
697780.23
 10
296613.14
 20
697782.5300000001
 10
296617.24
 20
697784.3299999999
 10
296618.24
 20
697781.93
  0
LWPOLYLINE
  5
129
330
70
100
AcDbEntity
  8
02_-_GENERAL_FEATURE
100
AcDbPolyline
 90
        3
 70
     0
 43
0.0
 10
296620.59
 20
697793.0
 10
296619.6
 20
697790.4599999999
 10
296596.62
 20
697781.1800000001
  0
LINE
  5
12E
330
70
100
AcDbEntity
  8
02_-_GENERAL_FEATURE
100
AcDbLine
 10
296590.14
 20
697779.83
 30
0.0
 11
296581.4
 21
697793.0
 31
0.0
  0
LWPOLYLINE
  5
12F
330
70
100
AcDbEntity
  8
02_-_GENERAL_FEATURE
100
AcDbPolyline
 90
        9
 70
     0
 43
0.0
 10
296553.83
 20
697693.0
 10
296550.05
 20
697706.38
 10
296548.51
 20
697720.0100000001
 10
296544.36
 20
697739.8100000001
 10
296542.2800000001
 20
697745.33
 10
296534.5000000001
 20
697758.47
 10
296533.0900000001
 20
697754.17
 10
296532.24
 20
697755.21
 10
296530.0
 20
697758.75
  0
LWPOLYLINE
  5
13A
330
70
100
AcDbEntity
  8
02_-_GENERAL_FEATURE
100
AcDbPolyline
 90
        3
 70
     0
 43
0.0
 10
296530.0
 20
697761.99
 10
296530.61
 20
697763.7099999999
 10
296530.68
 20
697763.9
  0
LWPOLYLINE
  5
13F
330
70
100
AcDbEntity
  8
16_-_INLAND_WATER
100
AcDbPolyline
 90
       31
 70
     0
 43
0.0
 10
296600.0
 20
697693.0
 10
296600.71
 20
697694.01
 10
296601.7600000001
 20
697696.2
 10
296602.91
 20
697698.39
 10
296604.85
 20
697702.27
 10
296605.48
 20
697703.8900000001
 10
296606.1
 20
697705.4100000001
 10
296607.43
 20
697708.8399999999
 10
296608.87
 20
697712.2900000001
 10
296610.71
 20
697715.36
 10
296611.65
 20
697716.59
 10
296612.5900000001
 20
697717.73
 10
296613.63
 20
697718.8700000001
 10
296615.24
 20
697720.73
 10
296617.04
 20
697722.6300000001
 10
296618.64
 20
697724.5300000001
 10
296619.74
 20
697726.0300000001
 10
296620.8400000001
 20
697727.6299999999
 10
296621.8400000001
 20
697729.2300000001
 10
296622.74
 20
697731.03
 10
296623.6400000001
 20
697732.93
 10
296624.44
 20
697734.83
 10
296624.66
 20
697735.45
 10
296624.85
 20
697736.07
 10
296625.06
 20
697736.6899999999
 10
296625.32
 20
697737.3400000001
 10
296626.43
 20
697739.15
 10
296627.55
 20
697740.77
 10
296628.56
 20
697742.0
 10
296629.56
 20
697743.04
 10
296630.0
 20
697743.5600000001
  0
LWPOLYLINE
  5
160
330
70
100
AcDbEntity
  8
25_-_BUILDING
100
AcDbPolyline
 90
        5
 70
     0
 43
0.0
 10
296593.32
 20
697793.0
 10
296593.86
 20
697791.71
 10
296597.07
 20
697792.97
 10
296597.87
 20
697790.92
 10
296603.18
 20
697793.0
  0
LWPOLYLINE
  5
167
330
70
100
AcDbEntity
  8
25_-_BUILDING
100
AcDbPolyline
 90
       12
 70
     0
 43
0.0
 10
296614.1400000001
 20
697772.63
 10
296614.34
 20
697772.23
 10
296607.0800000001
 20
697768.5000000001
 10
296607.9500000001
 20
697766.82
 10
296607.5
 20
697765.3899999999
 10
296605.92
 20
697764.5800000001
 10
296604.51
 20
697765.0500000001
 10
296603.64
 20
697766.73
 10
296600.22
 20
697773.43
 10
296605.44
 20
697776.13
 10
296606.24
 20
697774.6299999999
 10
296611.6400000001
 20
697777.4300000001
  0
LWPOLYLINE
  5
175
330
70
100
AcDbEntity
  8
02_-_GENERAL_FEATURE
100
AcDbPolyline
 90
       11
 70
     0
 43
0.0
 10
296560.58
 20
697693.0
 10
296559.33
 20
697696.81
 10
296556.7700000001
 20
697706.0899999999
 10
296556.51
 20
697707.86
 10
296556.4500000001
 20
697708.2300000001
 10
296556.44
 20
697708.3100000001
 10
296556.12
 20
697710.38
 10
296555.97
 20
697712.4100000001
 10
296555.91
 20
697714.1999999999
 10
296556.18
 20
697714.72
 10
296556.47
 20
697715.28
  0
LWPOLYLINE
  5
182
330
70
100
AcDbEntity
  8
02_-_GENERAL_FEATURE
100
AcDbPolyline
 90
        3
 70
     0
 43
0.0
 10
296598.14
 20
697777.13
 10
296625.5900000001
 20
697788.35
 10
296630.0
 20
697790.2199999999
  0
LWPOLYLINE
  5
187
330
70
100
AcDbEntity
  8
16_-_INLAND_WATER
100
AcDbPolyline
 90
        9
 70
     0
 43
0.0
 10
296620.11
 20
697732.52
 10
296620.3400000001
 20
697733.0300000001
 10
296621.74
 20
697735.83
 10
296622.42
 20
697736.86
 10
296623.06
 20
697737.86
 10
296623.49
 20
697738.64
 10
296624.61
 20
697740.6600000001
 10
296625.82
 20
697742.58
 10
296630.0
 20
697748.22
  0
LWPOLYLINE
  5
192
330
70
100
AcDbEntity
  8
02_-_GENERAL_FEATURE
100
AcDbPolyline
 90
        9
 70
     0
 43
0.0
 10
296619.62
 20
697733.12
 10
296614.93
 20
697738.9399999999
 10
296612.57
 20
697739.4700000001
 10
296612.61
 20
697741.8199999999
 10
296610.0200000001
 20
697745.51
 10
296606.14
 20
697752.4000000001
 10
296602.98
 20
697757.43
 10
296597.54
 20
697770.1300000001
 10
296596.8200000001
 20
697772.08
  0
LINE
  5
19D
330
70
100
AcDbEntity
  8
25_-_BUILDING
100
AcDbLine
 10
296617.31
 20
697729.6800000001
 30
0.0
 11
296615.22
 21
697726.57
 31
0.0
  0
LINE
  5
19E
330
70
100
AcDbEntity
  8
02_-_GENERAL_FEATURE
100
AcDbLine
 10
296619.62
 20
697733.12
 30
0.0
 11
296617.31
 21
697729.6800000001
 31
0.0
  0
LINE
  5
19F
330
70
100
AcDbEntity
  8
02_-_GENERAL_FEATURE
100
AcDbLine
 10
296619.62
 20
697733.12
 30
0.0
 11
296620.11
 21
697732.52
 31
0.0
  0
LWPOLYLINE
  5
1A0
330
70
100
AcDbEntity
  8
07_-_PATH
100
AcDbPolyline
 90
        4
 70
     0
 43
0.0
 10
296606.9
 20
697693.0
 10
296610.93
 20
697698.91
 10
296614.64
 20
697705.6000000001
 10
296619.26
 20
697713.83
  0
LWPOLYLINE
  5
1A6
330
70
100
AcDbEntity
  8
02_-_GENERAL_FEATURE
100
AcDbPolyline
 90
        3
 70
     0
 43
0.0
 10
296596.62
 20
697781.1800000001
 10
296596.3400000001
 20
697781.93
 10
296590.14
 20
697779.83
  0
LINE
  5
1AB
330
70
100
AcDbEntity
  8
02_-_GENERAL_FEATURE
100
AcDbLine
 10
296598.14
 20
697777.13
 30
0.0
 11
296596.62
 21
697781.1800000001
 31
0.0
  0
LWPOLYLINE
  5
1AC
330
70
100
AcDbEntity
  8
22_-_ROAD_OR_TRACK
100
AcDbPolyline
 90
        3
 70
     0
 43
0.0
 10
296596.8200000001
 20
697772.08
 10
296595.46
 20
697769.61
 10
296586.93
 20
697765.6899999999
  0
LWPOLYLINE
  5
1B1
330
70
100
AcDbEntity
  8
25_-_BUILDING
100
AcDbPolyline
 90
        4
 70
     0
 43
0.0
 10
296578.3400000001
 20
697733.26
 10
296568.06
 20
697741.5500000001
 10
296572.91
 20
697747.5699999999
 10
296575.37
 20
697745.5899999999
  0
LWPOLYLINE
  5
1B7
330
70
100
AcDbEntity
  8
25_-_BUILDING
100
AcDbPolyline
 90
        7
 70
     0
 43
0.0
 10
296590.19
 20
697752.2800000001
 10
296586.18
 20
697747.31
 10
296592.17
 20
697742.48
 10
296596.18
 20
697747.4499999999
 10
296596.39
 20
697747.71
 10
296590.4
 20
697752.5400000001
 10
296590.19
 20
697752.2800000001
  0
LWPOLYLINE
  5
1C0
330
70
100
AcDbEntity
  8
25_-_BUILDING
100
AcDbPolyline
 90
        4
 70
     0
 43
0.0
 10
296615.22
 20
697726.57
 10
296610.71
 20
697729.61
 10
296612.8
 20
697732.7200000001
 10
296617.31
 20
697729.6800000001
  0
LWPOLYLINE
  5
1C6
330
70
100
AcDbEntity
  8
25_-_BUILDING
100
AcDbPolyline
 90
        5
 70
     0
 43
0.0
 10
296595.94
 20
697714.1999999999
 10
296600.74
 20
697720.24
 10
296606.0800000001
 20
697716.0
 10
296601.2800000001
 20
697709.95
 10
296595.94
 20
697714.1999999999
  0
LINE
  5
1CD
330
70
100
AcDbEntity
  8
02_-_GENERAL_FEATURE
100
AcDbLine
 10
296584.18
 20
697770.0099999999
 30
0.0
 11
296583.67
 21
697769.6899999999
 31
0.0
  0
LWPOLYLINE
  5
1CE
330
70
100
AcDbEntity
  8
25_-_BUILDING
100
AcDbPolyline
 90
        7
 70
     0
 43
0.0
 10
296579.05
 20
697746.49
 10
296583.47
 20
697742.9300000001
 10
296584.6
 20
697744.33
 10
296590.48
 20
697739.5900000001
 10
296584.1300000001
 20
697731.73
 10
296582.59
 20
697729.8199999999
 10
296580.4
 20
697731.59
  0
LWPOLYLINE
  5
1D7
330
70
100
AcDbEntity
  8
02_-_GENERAL_FEATURE
100
AcDbPolyline
 90
        7
 70
     0
 43
0.0
 10
296615.22
 20
697726.57
 10
296612.55
 20
697722.62
 10
296607.73
 20
697715.46
 10
296605.1
 20
697710.8199999999
 10
296601.85
 20
697701.7299999999
 10
296601.71
 20
697701.34
 10
296596.9600000001
 20
697693.0
  0
LWPOLYLINE
  5
1E0
330
70
100
AcDbEntity
  8
22_-_ROAD_OR_TRACK
100
AcDbPolyline
 90
        3
 70
     0
 43
0.0
 10
296530.0
 20
697776.2
 10
296530.54
 20
697775.33
 10
296538.24
 20
697764.93
  0
LWPOLYLINE
  5
1E5
330
70
100
AcDbEntity
  8
22_-_ROAD_OR_TRACK
100
AcDbPolyline
 90
       23
 70
     0
 43
0.0
 10
296556.19
 20
697693.0
 10
296555.26
 20
697695.58
 10
296554.32
 20
697698.63
 10
296553.22
 20
697702.63
 10
296552.47
 20
697705.9800000001
 10
296552.16
 20
697708.3900000001
 10
296552.01
 20
697709.84
 10
296551.54
 20
697714.28
 10
296550.88
 20
697719.85
 10
296550.57
 20
697721.93
 10
296549.97
 20
697725.2400000001
 10
296546.99
 20
697740.47
 10
296546.7800000001
 20
697741.51
 10
296546.59
 20
697742.21
 10
296546.2500000001
 20
697743.32
 10
296545.99
 20
697744.0
 10
296545.41
 20
697745.28
 10
296545.07
 20
697745.9300000001
 10
296544.72
 20
697746.58
 10
296543.44
 20
697748.89
 10
296533.36
 20
697765.22
 10
296530.63
 20
697767.19
 10
296530.0
 20
697767.6500000001
  0
LWPOLYLINE
  5
1FE
330
70
100
AcDbEntity
  8
07_-_PATH
100
AcDbPolyline
 90
        5
 70
     0
 43
0.0
 10
296619.26
 20
697713.83
 10
296622.23
 20
697720.5400000001
 10
296625.03
 20
697725.84
 10
296629.43
 20
697732.5400000001
 10
296630.0
 20
697733.4499999999
  0
LWPOLYLINE
  5
205
330
70
100
AcDbEntity
  8
25_-_BUILDING
100
AcDbPolyline
 90
        4
 70
     0
 43
0.0
 10
296580.4
 20
697731.59
 10
296581.95
 20
697733.5
 10
296579.88
 20
697735.1700000001
 10
296578.3400000001
 20
697733.26
  0
LWPOLYLINE
  5
20B
330
70
100
AcDbEntity
  8
02_-_GENERAL_FEATURE
100
AcDbPolyline
 90
        5
 70
     0
 43
0.0
 10
296602.18
 20
697693.0
 10
296608.74
 20
697704.7299999999
 10
296618.24
 20
697722.43
 10
296624.14
 20
697732.0300000001
 10
296630.0
 20
697741.91
  0
LWPOLYLINE
  5
212
330
70
100
AcDbEntity
  8
25_-_BUILDING
100
AcDbPolyline
 90
       17
 70
     0
 43
0.0
 10
296564.84
 20
697788.1299999999
 10
296562.14
 20
697785.03
 10
296562.94
 20
697784.63
 10
296559.6400000001
 20
697780.8299999999
 10
296556.94
 20
697783.13
 10
296554.24
 20
697780.0300000001
 10
296557.64
 20
697777.13
 10
296552.64
 20
697771.5300000001
 10
296556.44
 20
697768.2300000001
 10
296561.54
 20
697774.03
 10
296563.74
 20
697772.13
 10
296566.74
 20
697775.5300000001
 10
296563.74
 20
697778.1300000001
 10
296567.24
 20
697782.1300000001
 10
296567.64
 20
697781.4300000002
 10
296569.74
 20
697783.8300000001
 10
296564.84
 20
697788.1299999999
  0
LWPOLYLINE
  5
225
330
70
100
AcDbEntity
  8
02_-_GENERAL_FEATURE
100
AcDbPolyline
 90
        4
 70
     0
 43
0.0
 10
296583.67
 20
697769.6899999999
 10
296581.34
 20
697773.33
 10
296573.8400000001
 20
697785.1300000001
 10
296569.05
 20
697793.0
  0
TEXT
  5
22B
330
70
100
AcDbEntity
  8
22_-_ROAD_OR_TRACK
100
AcDbText
 10
296534.6330925944
 20
697778.1514962562
 30
0.0
 40
2.06
  1
UK MAP CENTRE LOAN
 50
302.3
 72
     1
 11
296544.3565241788
 21
697762.770548431
 31
0.0
100
AcDbText
  0
TEXT
  5
22C
330
70
100
AcDbEntity
  8
24_-_BUILDINGS_OR_STRUCTURE
100
AcDbText
 10
296564.1
 20
697780.5899999999
 30
0.0
 40
1.5
  1
2
 50
101.2
100
AcDbText
  0
TEXT
  5
22D
330
70
100
AcDbEntity
  8
24_-_BUILDINGS_OR_STRUCTURE
100
AcDbText
 10
296588.17
 20
697708.0400000001
 30
0.0
 40
1.5
  1
1b
 50
142.0
100
AcDbText
  0
TEXT
  5
22E
330
70
100
AcDbEntity
  8
24_-_BUILDINGS_OR_STRUCTURE
100
AcDbText
 10
296603.0
 20
697770.89
 30
0.0
 40
1.5
  1
116
 50
305.7
100
AcDbText
  0
TEXT
  5
22F
330
70
100
AcDbEntity
  8
24_-_BUILDINGS_OR_STRUCTURE
100
AcDbText
 10
296583.57
 20
697738.7199999999
 30
0.0
 40
1.5
  1
1a Cottage
 50
143.6
100
AcDbText
  0
LWPOLYLINE
  5
230
330
70
100
AcDbEntity
  8
MM_FRAME
100
AcDbPolyline
 90
        5
 70
     0
 43
0.0
 10
296530.0
 20
697693.0
 10
296530.0
 20
697793.0
 10
296630.0
 20
697793.0
 10
296630.0
 20
697693.0
 10
296530.0
 20
697693.0
  0
LWPOLYLINE
  5
237
330
70
100
AcDbEntity
  8
MM_FRAME
100
AcDbPolyline
 90
        5
 70
     0
 43
0.0
 10
296522.0
 20
697685.0
 10
296522.0
 20
697801.0
 10
296638.0
 20
697801.0
 10
296638.0
 20
697685.0
 10
296522.0
 20
697685.0
  0
TEXT
  5
23E
330
70
100
AcDbEntity
  8
MM_FRAME
100
AcDbText
 10
296631.9333333333
 20
697692.5
 30
0.0
 40
1.0
  1
697693
 72
     2
 11
296637.6
 21
697692.5
 31
0.0
100
AcDbText
  0
TEXT
  5
23F
330
70
100
AcDbEntity
  8
MM_FRAME
100
AcDbText
 10
296522.4
 20
697692.5
 30
0.0
 40
1.0
  1
697693
100
AcDbText
  0
TEXT
  5
240
330
70
100
AcDbEntity
  8
MM_FRAME
100
AcDbText
 10
296631.9333333333
 20
697792.5
 30
0.0
 40
1.0
  1
697793
 72
     2
 11
296637.6
 21
697792.5
 31
0.0
100
AcDbText
  0
TEXT
  5
241
330
70
100
AcDbEntity
  8
MM_FRAME
100
AcDbText
 10
296522.4
 20
697792.5
 30
0.0
 40
1.0
  1
697793
100
AcDbText
  0
TEXT
  5
242
330
70
100
AcDbEntity
  8
0
100
AcDbText
 10
296632.2666666667
 20
697699.5000000001
 30
0.0
 40
1.0
  1
697700
 72
     2
 11
296637.6
 21
697699.5000000001
 31
0.0
100
AcDbText
  0
TEXT
  5
243
330
70
100
AcDbEntity
  8
0
100
AcDbText
 10
296522.4
 20
697699.5000000001
 30
0.0
 40
1.0
  1
697700
100
AcDbText
  0
LINE
  5
244
330
70
100
AcDbEntity
  8
MM_FRAME
100
AcDbLine
 10
296530.0
 20
697700.0
 30
0.0
 11
296630.0
 21
697700.0
 31
0.0
  0
TEXT
  5
245
330
70
100
AcDbEntity
  8
MM_FRAME
100
AcDbText
 10
296529.5
 20
697800.6
 30
0.0
 40
1.0
  1
296530
 50
270.0
100
AcDbText
  0
TEXT
  5
246
330
70
100
AcDbEntity
  8
MM_FRAME
100
AcDbText
 10
296529.5
 20
697690.9
 30
0.0
 40
1.0
  1
296530
 50
270.0
 72
     2
 11
296529.5
 21
697685.4
 31
0.0
100
AcDbText
  0
TEXT
  5
247
330
70
100
AcDbEntity
  8
MM_FRAME
100
AcDbText
 10
296629.5
 20
697800.6
 30
0.0
 40
1.0
  1
296630
 50
270.0
100
AcDbText
  0
TEXT
  5
248
330
70
100
AcDbEntity
  8
MM_FRAME
100
AcDbText
 10
296629.5
 20
697690.9
 30
0.0
 40
1.0
  1
296630
 50
270.0
 72
     2
 11
296629.5
 21
697685.4
 31
0.0
100
AcDbText
  0
TEXT
  5
249
330
70
100
AcDbEntity
  8
0
100
AcDbText
 10
296599.5
 20
697800.6
 30
0.0
 40
1.0
  1
296600
 50
270.0
100
AcDbText
  0
TEXT
  5
24A
330
70
100
AcDbEntity
  8
0
100
AcDbText
 10
296599.5
 20
697690.7333333334
 30
0.0
 40
1.0
  1
296600
 50
270.0
 72
     2
 11
296599.5
 21
697685.4
 31
0.0
100
AcDbText
  0
LINE
  5
24B
330
70
100
AcDbEntity
  8
MM_FRAME
100
AcDbLine
 10
296600.0
 20
697693.0
 30
0.0
 11
296600.0
 21
697793.0
 31
0.0
  0
LINE
  5
24C
330
70
100
AcDbEntity
  8
0
100
AcDbLine
 10
296550.0
 20
697668.5300000001
 30
0.0
 11
296610.0
 21
697668.5300000001
 31
0.0
  0
LINE
  5
24D
330
70
100
AcDbEntity
  8
0
100
AcDbLine
 10
296550.0
 20
697667.0300000001
 30
0.0
 11
296550.0
 21
697670.53
 31
0.0
  0
TEXT
  5
24E
330
70
100
AcDbEntity
  8
0
100
AcDbText
 10
296549.5333333334
 20
697671.5300000001
 30
0.0
 40
0.8
  1
10
 72
     1
 11
296550.0
 21
697671.5300000001
 31
0.0
100
AcDbText
  0
LINE
  5
24F
330
70
100
AcDbEntity
  8
0
100
AcDbLine
 10
296560.0
 20
697667.0300000001
 30
0.0
 11
296560.0
 21
697670.53
 31
0.0
  0
TEXT
  5
250
330
70
100
AcDbEntity
  8
0
100
AcDbText
 10
296559.8
 20
697671.5300000001
 30
0.0
 40
0.8
  1
0
 72
     1
 11
296560.0
 21
697671.5300000001
 31
0.0
100
AcDbText
  0
LINE
  5
251
330
70
100
AcDbEntity
  8
0
100
AcDbLine
 10
296570.0
 20
697667.0300000001
 30
0.0
 11
296570.0
 21
697670.53
 31
0.0
  0
TEXT
  5
252
330
70
100
AcDbEntity
  8
0
100
AcDbText
 10
296569.5333333334
 20
697671.5300000001
 30
0.0
 40
0.8
  1
10
 72
     1
 11
296570.0
 21
697671.5300000001
 31
0.0
100
AcDbText
  0
LINE
  5
253
330
70
100
AcDbEntity
  8
0
100
AcDbLine
 10
296580.0
 20
697667.0300000001
 30
0.0
 11
296580.0
 21
697670.53
 31
0.0
  0
TEXT
  5
254
330
70
100
AcDbEntity
  8
0
100
AcDbText
 10
296579.4000000001
 20
697671.5300000001
 30
0.0
 40
0.8
  1
20
 72
     1
 11
296580.0
 21
697671.5300000001
 31
0.0
100
AcDbText
  0
LINE
  5
255
330
70
100
AcDbEntity
  8
0
100
AcDbLine
 10
296590.0
 20
697667.0300000001
 30
0.0
 11
296590.0
 21
697670.53
 31
0.0
  0
TEXT
  5
256
330
70
100
AcDbEntity
  8
0
100
AcDbText
 10
296589.4
 20
697671.5300000001
 30
0.0
 40
0.8
  1
30
 72
     1
 11
296590.0
 21
697671.5300000001
 31
0.0
100
AcDbText
  0
LINE
  5
257
330
70
100
AcDbEntity
  8
0
100
AcDbLine
 10
296600.0
 20
697667.0300000001
 30
0.0
 11
296600.0
 21
697670.53
 31
0.0
  0
TEXT
  5
258
330
70
100
AcDbEntity
  8
0
100
AcDbText
 10
296599.4
 20
697671.5300000001
 30
0.0
 40
0.8
  1
40
 72
     1
 11
296600.0
 21
697671.5300000001
 31
0.0
100
AcDbText
  0
LINE
  5
259
330
70
100
AcDbEntity
  8
0
100
AcDbLine
 10
296610.0
 20
697667.0300000001
 30
0.0
 11
296610.0
 21
697670.53
 31
0.0
  0
TEXT
  5
25A
330
70
100
AcDbEntity
  8
0
100
AcDbText
 10
296609.4
 20
697671.5300000001
 30
0.0
 40
0.8
  1
50
 72
     1
 11
296610.0
 21
697671.5300000001
 31
0.0
100
AcDbText
  0
LINE
  5
25B
330
70
100
AcDbEntity
  8
0
100
AcDbLine
 10
296551.0
 20
697668.5300000001
 30
0.0
 11
296551.0
 21
697669.53
 31
0.0
  0
LINE
  5
25C
330
70
100
AcDbEntity
  8
0
100
AcDbLine
 10
296552.0
 20
697668.5300000001
 30
0.0
 11
296552.0
 21
697669.53
 31
0.0
  0
LINE
  5
25D
330
70
100
AcDbEntity
  8
0
100
AcDbLine
 10
296553.0
 20
697668.5300000001
 30
0.0
 11
296553.0
 21
697669.53
 31
0.0
  0
LINE
  5
25E
330
70
100
AcDbEntity
  8
0
100
AcDbLine
 10
296554.0
 20
697668.5300000001
 30
0.0
 11
296554.0
 21
697669.53
 31
0.0
  0
LINE
  5
25F
330
70
100
AcDbEntity
  8
0
100
AcDbLine
 10
296555.0
 20
697667.33
 30
0.0
 11
296555.0
 21
697669.53
 31
0.0
  0
LINE
  5
260
330
70
100
AcDbEntity
  8
0
100
AcDbLine
 10
296556.0
 20
697668.5300000001
 30
0.0
 11
296556.0
 21
697669.53
 31
0.0
  0
LINE
  5
261
330
70
100
AcDbEntity
  8
0
100
AcDbLine
 10
296557.0
 20
697668.5300000001
 30
0.0
 11
296557.0
 21
697669.53
 31
0.0
  0
LINE
  5
262
330
70
100
AcDbEntity
  8
0
100
AcDbLine
 10
296558.0
 20
697668.5300000001
 30
0.0
 11
296558.0
 21
697669.53
 31
0.0
  0
LINE
  5
263
330
70
100
AcDbEntity
  8
0
100
AcDbLine
 10
296559.0
 20
697668.5300000001
 30
0.0
 11
296559.0
 21
697669.53
 31
0.0
  0
TEXT
  5
264
330
70
100
AcDbEntity
  8
0
100
AcDbText
 10
296577.1666666667
 20
697664.5300000001
 30
0.0
 40
1.0
  1
metres
 72
     1
 11
296580.0
 21
697665.53
 31
0.0
100
AcDbText
 73
     3
  0
TEXT
  5
265
330
70
100
AcDbEntity
  8
0
100
AcDbText
 10
296522.4
 20
697680.6500000001
 30
0.0
 40
1.0
  1
Serial number: SAMPLE - July21
100
AcDbText
  0
TEXT
  5
266
330
70
100
AcDbEntity
  8
0
100
AcDbText
 10
296522.4
 20
697677.6500000001
 30
0.0
 40
1.0
  1
  Crown copyright and database right 2021
100
AcDbText
  0
LWPOLYLINE
  5
267
330
70
100
AcDbEntity
  8
0
100
AcDbPolyline
 90
       13
 70
     0
 43
0.0
 10
296523.4
 20
697678.6
 10
296523.68
 20
697678.53
 10
296523.88
 20
697678.33
 10
296523.95
 20
697678.0500000001
 10
296523.88
 20
697677.78
 10
296523.68
 20
697677.5700000001
 10
296523.4
 20
697677.5
 10
296523.1300000001
 20
697677.5700000001
 10
296522.92
 20
697677.78
 10
296522.85
 20
697678.0500000001
 10
296522.92
 20
697678.33
 10
296523.1300000001
 20
697678.53
 10
296523.4
 20
697678.6
  0
TEXT
  5
276
330
70
100
AcDbEntity
  8
0
100
AcDbText
 10
296523.1800000001
 20
697677.72
 30
0.0
 40
0.6600000000000001
  1
C
 72
     1
 11
296523.4
 21
697678.0500000001
 31
0.0
100
AcDbText
 73
     2
  0
TEXT
  5
277
330
70
100
AcDbEntity
  8
0
100
AcDbText
 10
296522.4
 20
697675.65
 30
0.0
 40
1.0
  1
Ordnance Survey licence 100048957
100
AcDbText
  0
TEXT
  5
278
330
70
100
AcDbEntity
  8
0
100
AcDbText
 10
296522.4
 20
697673.6500000001
 30
0.0
 40
1.0
  1
Reproduction in whole or in part is prohibited
100
AcDbText
  0
TEXT
  5
279
330
70
100
AcDbEntity
  8
0
100
AcDbText
 10
296522.4
 20
697671.6500000001
 30
0.0
 40
1.0
  1
without the prior permission of Ordnance Survey
100
AcDbText
  0
TEXT
  5
27A
330
70
100
AcDbEntity
  8
0
100
AcDbText
 10
296522.4
 20
697810.6
 30
0.0
 40
2.0
  1
Ordnance Survey
100
AcDbText
  0
LWPOLYLINE
  5
27B
330
70
100
AcDbEntity
  8
0
100
AcDbPolyline
 90
       13
 70
     0
 43
0.0
 10
296553.0
 20
697812.2
 10
296553.3
 20
697812.12
 10
296553.5200000001
 20
697811.9000000001
 10
296553.6
 20
697811.5999999999
 10
296553.5200000001
 20
697811.3
 10
296553.3
 20
697811.08
 10
296553.0
 20
697811.0
 10
296552.7
 20
697811.08
 10
296552.48
 20
697811.3
 10
296552.4
 20
697811.5999999999
 10
296552.48
 20
697811.9000000001
 10
296552.7
 20
697812.12
 10
296553.0
 20
697812.2
  0
TEXT
  5
28A
330
70
100
AcDbEntity
  8
0
100
AcDbText
 10
296552.76
 20
697811.24
 30
0.0
 40
0.72
  1
R
 72
     1
 11
296553.0
 21
697811.5999999999
 31
0.0
100
AcDbText
 73
     2
  0
TEXT
  5
28B
330
70
100
AcDbEntity
  8
0
100
AcDbText
 10
296522.4
 20
697807.0
 30
0.0
 40
2.0
  1
Ukmapcentre.com
100
AcDbText
  0
LWPOLYLINE
  5
28C
330
70
100
AcDbEntity
  8
0
100
AcDbPolyline
 90
       13
 70
     0
 43
0.0
 10
296630.0
 20
697681.5999999999
 10
296633.8
 20
697680.58
 10
296636.58
 20
697677.8
 10
296637.6
 20
697674.0
 10
296636.58
 20
697670.2
 10
296633.8
 20
697667.4200000001
 10
296630.0
 20
697666.4000000001
 10
296626.2
 20
697667.4200000001
 10
296623.42
 20
697670.2
 10
296622.4
 20
697674.0
 10
296623.42
 20
697677.8
 10
296626.2
 20
697680.58
 10
296630.0
 20
697681.5999999999
  0
LINE
  5
29B
330
70
100
AcDbEntity
  8
0
100
AcDbLine
 10
296630.0
 20
697681.5999999999
 30
0.0
 11
296630.0
 21
697666.4000000001
 31
0.0
  0
LWPOLYLINE
  5
29C
330
70
100
AcDbEntity
  8
0
100
AcDbPolyline
 90
        4
 70
     0
 43
0.0
 10
296627.72
 20
697677.9499999999
 10
296630.0
 20
697681.5999999999
 10
296632.28
 20
697677.9499999999
 10
296627.72
 20
697677.9499999999
  0
INSERT
  5
68F
330
70
100
AcDbEntity
  8
0
  6
Continuous
100
AcDbBlockReference
  2
Sample - dtm - dwg
 10
0.0
 20
0.0
 30
0.0
  0
INSERT
  5
6A7
330
70
100
AcDbEntity
  8
0
  6
Continuous
100
AcDbBlockReference
  2
Sample - 2m contours - dwg
 10
0.0
 20
0.0
 30
0.0
  0
ENDSEC
  0
SECTION
  2
OBJECTS
  0
DICTIONARY
  5
C
330
0
100
AcDbDictionary
281
     1
  3
ACAD_CIP_PREVIOUS_PRODUCT_INFO
350
2A3
  3
ACAD_COLOR
350
62
  3
ACAD_DETAILVIEWSTYLE
350
6A
  3
ACAD_GROUP
350
D
  3
ACAD_LAYOUT
350
61
  3
ACAD_MATERIAL
350
10
  3
ACAD_MLEADERSTYLE
350
65
  3
ACAD_MLINESTYLE
350
5E
  3
ACAD_PLOTSETTINGS
350
60
  3
ACAD_PLOTSTYLENAME
350
E
  3
ACAD_SCALELIST
350
42
  3
ACAD_SECTIONVIEWSTYLE
350
67
  3
ACAD_TABLESTYLE
350
63
  3
ACAD_VISUALSTYLE
350
29
  3
ACDB_RECOMPOSE_DATA
350
6EA
  3
AcDbVariableDictionary
350
2B7
  3
DWGPROPS
350
6EB
  0
DICTIONARY
  5
302
330
8
100
AcDbDictionary
280
     1
281
     1
  0
DICTIONARY
  5
2A7
330
54
100
AcDbDictionary
280
     1
281
     1
  3
ADSK_XREC_LAYER_RECONCILED
360
2A8
  0
DICTIONARY
  5
2A9
330
74
100
AcDbDictionary
280
     1
281
     1
  3
ADSK_XREC_LAYER_RECONCILED
360
2AA
  0
DICTIONARY
  5
2AB
330
75
100
AcDbDictionary
280
     1
281
     1
  3
ADSK_XREC_LAYER_RECONCILED
360
2AC
  0
DICTIONARY
  5
2AD
330
76
100
AcDbDictionary
280
     1
281
     1
  3
ADSK_XREC_LAYER_RECONCILED
360
2AE
  0
DICTIONARY
  5
2AF
330
77
100
AcDbDictionary
280
     1
281
     1
  3
ADSK_XREC_LAYER_RECONCILED
360
2B0
  0
DICTIONARY
  5
2B1
330
78
100
AcDbDictionary
280
     1
281
     1
  3
ADSK_XREC_LAYER_RECONCILED
360
2B2
  0
DICTIONARY
  5
2B3
330
79
100
AcDbDictionary
280
     1
281
     1
  3
ADSK_XREC_LAYER_RECONCILED
360
2B4
  0
DICTIONARY
  5
2B5
330
7A
100
AcDbDictionary
280
     1
281
     1
  3
ADSK_XREC_LAYER_RECONCILED
360
2B6
  0
DICTIONARY
  5
341
330
340
100
AcDbDictionary
280
     1
281
     1
  0
DICTIONARY
  5
343
330
342
100
AcDbDictionary
280
     1
281
     1
  0
DICTIONARY
  5
691
330
690
100
AcDbDictionary
280
     1
281
     1
  0
DICTIONARY
  5
693
330
692
100
AcDbDictionary
280
     1
281
     1
  0
XRECORD
  5
2A3
102
{ACAD_REACTORS
330
C
102
}
330
C
100
AcDbXrecord
280
     1
300
ACDLT
300
2013
300
ACDLT_F_S
  0
DICTIONARY
  5
62
102
{ACAD_REACTORS
330
C
102
}
330
C
100
AcDbDictionary
281
     1
  0
DICTIONARY
  5
6A
102
{ACAD_REACTORS
330
C
102
}
330
C
100
AcDbDictionary
281
     1
  3
Imperial24
350
6B
  0
DICTIONARY
  5
D
102
{ACAD_REACTORS
330
C
102
}
330
C
100
AcDbDictionary
281
     1
  0
DICTIONARY
  5
61
102
{ACAD_REACTORS
330
C
102
}
330
C
100
AcDbDictionary
281
     1
  3
Layout1
350
6F
  3
Model
350
73
  0
DICTIONARY
  5
10
102
{ACAD_REACTORS
330
C
102
}
330
C
100
AcDbDictionary
281
     1
  3
ByBlock
350
19
  3
ByLayer
350
11
  3
Global
350
21
  0
DICTIONARY
  5
65
102
{ACAD_REACTORS
330
C
102
}
330
C
100
AcDbDictionary
281
     1
  3
Standard
350
66
  0
DICTIONARY
  5
5E
102
{ACAD_REACTORS
330
C
102
}
330
C
100
AcDbDictionary
281
     1
  3
Standard
350
5F
  0
DICTIONARY
  5
60
102
{ACAD_REACTORS
330
C
102
}
330
C
100
AcDbDictionary
281
     1
  0
ACDBDICTIONARYWDFLT
  5
E
102
{ACAD_REACTORS
330
C
102
}
330
C
100
AcDbDictionary
281
     1
  3
Normal
350
F
100
AcDbDictionaryWithDefault
340
F
  0
DICTIONARY
  5
42
102
{ACAD_REACTORS
330
C
102
}
330
C
100
AcDbDictionary
281
     1
  3
A0
350
43
  3
A1
350
44
  3
A2
350
45
  3
A3
350
46
  3
A4
350
47
  3
A5
350
48
  3
A6
350
49
  3
A7
350
4A
  3
A8
350
4B
  3
A9
350
4C
  3
B0
350
4D
  3
B1
350
4E
  3
B2
350
4F
  3
B3
350
50
  3
B4
350
51
  3
B5
350
52
  3
B6
350
53
  0
DICTIONARY
  5
67
102
{ACAD_REACTORS
330
C
102
}
330
C
100
AcDbDictionary
281
     1
  3
Imperial24
350
69
  0
DICTIONARY
  5
63
102
{ACAD_REACTORS
330
C
102
}
330
C
100
AcDbDictionary
281
     1
  3
Standard
350
64
  0
DICTIONARY
  5
29
102
{ACAD_REACTORS
330
C
102
}
330
C
100
AcDbDictionary
281
     1
  3
2dWireframe
350
2F
  3
Basic
350
2E
  3
Brighten
350
35
  3
ColorChange
350
39
  3
Conceptual
350
32
  3
Dim
350
34
  3
EdgeColorOff
350
41
  3
Facepattern
350
38
  3
Flat
350
2A
  3
FlatWithEdges
350
2B
  3
Gouraud
350
2C
  3
GouraudWithEdges
350
2D
  3
Hidden
350
31
  3
JitterOff
350
3F
  3
Linepattern
350
37
  3
OverhangOff
350
40
  3
Realistic
350
33
  3
Shaded
350
3E
  3
Shaded with edges
350
3D
  3
Shades of Gray
350
3A
  3
Sketchy
350
3B
  3
Thicken
350
36
  3
Wireframe
350
30
  3
X-Ray
350
3C
  0
XRECORD
  5
6EA
102
{ACAD_REACTORS
330
C
102
}
330
C
100
AcDbXrecord
280
     1
 90
        1
330
64
  0
DICTIONARY
  5
2B7
102
{ACAD_REACTORS
330
C
102
}
330
C
100
AcDbDictionary
281
     1
  3
CANNOSCALE
350
2BC
  3
CMLEADERSTYLE
350
2B9
  3
CTABLESTYLE
350
2B8
  3
CVIEWDETAILSTYLE
350
2BA
  3
CVIEWSECTIONSTYLE
350
2BB
  3
DIMASSOC
350
2BF
  3
INDEXCTL
350
2BE
  3
SORTENTS
350
2BD
  3
XCLIPFRAME
350
6E8
  0
XRECORD
  5
6EB
102
{ACAD_REACTORS
330
C
102
}
330
C
100
AcDbXrecord
280
     1
  1
DWGPROPS COOKIE
  2

  3

  4

  6

  7

  8
Stuart
  9

300
=
301
=
302
=
303
=
304
=
305
=
306
=
307
=
308
=
309
=
 40
0.0034491550925926
 41
2459418.515441158
 42
2459949.539525162
  1

 90
        0
  0
XRECORD
  5
2A8
102
{ACAD_REACTORS
330
2A7
102
}
330
2A7
100
AcDbXrecord
280
     1
290
     1
  0
XRECORD
  5
2AA
102
{ACAD_REACTORS
330
2A9
102
}
330
2A9
100
AcDbXrecord
280
     1
290
     1
  0
XRECORD
  5
2AC
102
{ACAD_REACTORS
330
2AB
102
}
330
2AB
100
AcDbXrecord
280
     1
290
     1
  0
XRECORD
  5
2AE
102
{ACAD_REACTORS
330
2AD
102
}
330
2AD
100
AcDbXrecord
280
     1
290
     1
  0
XRECORD
  5
2B0
102
{ACAD_REACTORS
330
2AF
102
}
330
2AF
100
AcDbXrecord
280
     1
290
     1
  0
XRECORD
  5
2B2
102
{ACAD_REACTORS
330
2B1
102
}
330
2B1
100
AcDbXrecord
280
     1
290
     1
  0
XRECORD
  5
2B4
102
{ACAD_REACTORS
330
2B3
102
}
330
2B3
100
AcDbXrecord
280
     1
290
     1
  0
XRECORD
  5
2B6
102
{ACAD_REACTORS
330
2B5
102
}
330
2B5
100
AcDbXrecord
280
     1
290
     1
  0
ACDBDETAILVIEWSTYLE
  5
6B
102
{ACAD_REACTORS
330
6A
102
}
330
6A
100
AcDbModelDocViewStyle
 70
     0
  3
Imperial24
290
     0
100
AcDbDetailViewStyle
 70
     0
 71
     0
 90
        3
 71
     1
340
55
 40
0.24
340
0
 40
0.24
300

 40
0.36
280
     3
 71
     2
340
5C
 90
       25
 71
     3
340
55
 40
0.24
 90
        1
 40
0.75
 90
        1
300
%<\AcVar ViewType \f "%tc1">% %<\AcVar ViewDetailId>%\PSCALE %<\AcVar ViewScale \f "%sn">%
 71
     4
340
5C
 90
       25
340
5C
 90
       25
280
     0
  0
LAYOUT
  5
6F
102
{ACAD_XDICTIONARY
360
720
102
}
102
{ACAD_REACTORS
330
61
102
}
330
61
100
AcDbPlotSettings
  1

  2
Microsoft Print to PDF
  4

  6

 40
0.0
 41
0.0
 42
0.0
 43
0.0
 44
0.0
 45
0.0
 46
0.0
 47
0.0
 48
0.0
 49
0.0
140
0.0
141
0.0
142
1.0
143
1.0
 70
   688
 72
     0
 73
     0
 74
     5
  7

 75
    16
147
1.0
148
0.0
149
0.0
100
AcDbLayout
  1
Layout1
 70
     1
 71
     1
 10
0.0
 20
0.0
 11
12.0
 21
9.0
 12
0.0
 22
0.0
 32
0.0
 14
1.000000000000000E+20
 24
1.000000000000000E+20
 34
1.000000000000000E+20
 15
-1.000000000000000E+20
 25
-1.000000000000000E+20
 35
-1.000000000000000E+20
146
0.0
 13
0.0
 23
0.0
 33
0.0
 16
1.0
 26
0.0
 36
0.0
 17
0.0
 27
1.0
 37
0.0
 76
     0
330
6C
  0
LAYOUT
  5
73
102
{ACAD_XDICTIONARY
360
722
102
}
102
{ACAD_REACTORS
330
61
102
}
330
61
100
AcDbPlotSettings
  1

  2
Microsoft Print to PDF
  4

  6

 40
0.0
 41
0.0
 42
0.0
 43
0.0
 44
0.0
 45
0.0
 46
0.0
 47
0.0
 48
0.0
 49
0.0
140
0.0
141
0.0
142
1.0
143
1.0
 70
  1712
 72
     0
 73
     0
 74
     0
  7

 75
     0
147
1.0
148
0.0
149
0.0
100
AcDbLayout
  1
Model
 70
     1
 71
     0
 10
0.0
 20
0.0
 11
12.0
 21
9.0
 12
0.0
 22
0.0
 32
0.0
 14
0.0
 24
0.0
 34
0.0
 15
0.0
 25
0.0
 35
0.0
146
0.0
 13
0.0
 23
0.0
 33
0.0
 16
1.0
 26
0.0
 36
0.0
 17
0.0
 27
1.0
 37
0.0
 76
     0
330
70
331
7C
  0
MATERIAL
  5
19
102
{ACAD_XDICTIONARY
360
1A
102
}
102
{ACAD_REACTORS
330
10
102
}
330
10
100
AcDbMaterial
  1
ByBlock
 72
     0
 43
0.0208333333333333
 43
0.0
 43
0.0
 43
0.0
 43
0.0
 43
0.0208333333333333
 43
0.0
 43
0.0
 43
0.0
 43
0.0
 43
1.0
 43
0.0
 43
0.0
 43
0.0
 43
0.0
 43
1.0
 77
     0
 47
0.0208333333333333
 47
0.0
 47
0.0
 47
0.0
 47
0.0
 47
0.0208333333333333
 47
0.0
 47
0.0
 47
0.0
 47
0.0
 47
1.0
 47
0.0
 47
0.0
 47
0.0
 47
0.0
 47
1.0
171
     0
 49
0.0208333333333333
 49
0.0
 49
0.0
 49
0.0
 49
0.0
 49
0.0208333333333333
 49
0.0
 49
0.0
 49
0.0
 49
0.0
 49
1.0
 49
0.0
 49
0.0
 49
0.0
 49
0.0
 49
1.0
175
     0
142
0.0208333333333333
142
0.0
142
0.0
142
0.0
142
0.0
142
0.0208333333333333
142
0.0
142
0.0
142
0.0
142
0.0
142
1.0
142
0.0
142
0.0
142
0.0
142
0.0
142
1.0
179
     0
144
0.0208333333333333
144
0.0
144
0.0
144
0.0
144
0.0
144
0.0208333333333333
144
0.0
144
0.0
144
0.0
144
0.0
144
1.0
144
0.0
144
0.0
144
0.0
144
0.0
144
1.0
147
0.0208333333333333
147
0.0
147
0.0
147
0.0
147
0.0
147
0.0208333333333333
147
0.0
147
0.0
147
0.0
147
0.0
147
1.0
147
0.0
147
0.0
147
0.0
147
0.0
147
1.0
  0
MATERIAL
  5
11
102
{ACAD_XDICTIONARY
360
12
102
}
102
{ACAD_REACTORS
330
10
102
}
330
10
100
AcDbMaterial
  1
ByLayer
 72
     0
 43
0.0208333333333333
 43
0.0
 43
0.0
 43
0.0
 43
0.0
 43
0.0208333333333333
 43
0.0
 43
0.0
 43
0.0
 43
0.0
 43
1.0
 43
0.0
 43
0.0
 43
0.0
 43
0.0
 43
1.0
 77
     0
 47
0.0208333333333333
 47
0.0
 47
0.0
 47
0.0
 47
0.0
 47
0.0208333333333333
 47
0.0
 47
0.0
 47
0.0
 47
0.0
 47
1.0
 47
0.0
 47
0.0
 47
0.0
 47
0.0
 47
1.0
171
     0
 49
0.0208333333333333
 49
0.0
 49
0.0
 49
0.0
 49
0.0
 49
0.0208333333333333
 49
0.0
 49
0.0
 49
0.0
 49
0.0
 49
1.0
 49
0.0
 49
0.0
 49
0.0
 49
0.0
 49
1.0
175
     0
142
0.0208333333333333
142
0.0
142
0.0
142
0.0
142
0.0
142
0.0208333333333333
142
0.0
142
0.0
142
0.0
142
0.0
142
1.0
142
0.0
142
0.0
142
0.0
142
0.0
142
1.0
179
     0
144
0.0208333333333333
144
0.0
144
0.0
144
0.0
144
0.0
144
0.0208333333333333
144
0.0
144
0.0
144
0.0
144
0.0
144
1.0
144
0.0
144
0.0
144
0.0
144
0.0
144
1.0
147
0.0208333333333333
147
0.0
147
0.0
147
0.0
147
0.0
147
0.0208333333333333
147
0.0
147
0.0
147
0.0
147
0.0
147
1.0
147
0.0
147
0.0
147
0.0
147
0.0
147
1.0
  0
MATERIAL
  5
21
102
{ACAD_XDICTIONARY
360
22
102
}
102
{ACAD_REACTORS
330
10
102
}
330
10
100
AcDbMaterial
  1
Global
 72
     0
 43
0.0208333333333333
 43
0.0
 43
0.0
 43
0.0
 43
0.0
 43
0.0208333333333333
 43
0.0
 43
0.0
 43
0.0
 43
0.0
 43
1.0
 43
0.0
 43
0.0
 43
0.0
 43
0.0
 43
1.0
 77
     0
 47
0.0208333333333333
 47
0.0
 47
0.0
 47
0.0
 47
0.0
 47
0.0208333333333333
 47
0.0
 47
0.0
 47
0.0
 47
0.0
 47
1.0
 47
0.0
 47
0.0
 47
0.0
 47
0.0
 47
1.0
171
     0
 49
0.0208333333333333
 49
0.0
 49
0.0
 49
0.0
 49
0.0
 49
0.0208333333333333
 49
0.0
 49
0.0
 49
0.0
 49
0.0
 49
1.0
 49
0.0
 49
0.0
 49
0.0
 49
0.0
 49
1.0
175
     0
142
0.0208333333333333
142
0.0
142
0.0
142
0.0
142
0.0
142
0.0208333333333333
142
0.0
142
0.0
142
0.0
142
0.0
142
1.0
142
0.0
142
0.0
142
0.0
142
0.0
142
1.0
179
     0
144
0.0208333333333333
144
0.0
144
0.0
144
0.0
144
0.0
144
0.0208333333333333
144
0.0
144
0.0
144
0.0
144
0.0
144
1.0
144
0.0
144
0.0
144
0.0
144
0.0
144
1.0
147
0.0208333333333333
147
0.0
147
0.0
147
0.0
147
0.0
147
0.0208333333333333
147
0.0
147
0.0
147
0.0
147
0.0
147
1.0
147
0.0
147
0.0
147
0.0
147
0.0
147
1.0
  0
MLEADERSTYLE
  5
66
102
{ACAD_REACTORS
330
65
102
}
330
65
100
AcDbMLeaderStyle
170
     2
171
     1
172
     0
 90
        2
 40
0.0
 41
0.0
173
     1
 91
-1056964608
340
5A
 92
       -2
290
     1
 42
0.09
291
     1
 43
0.36
  3
Standard
 44
0.18
300

342
55
174
     1
178
     6
175
     1
176
     0
 93
-1056964608
 45
0.18
292
     0
297
     0
 46
0.18
 94
-1056964608
 47
1.0
 49
1.0
140
1.0
293
     1
141
0.0
294
     1
177
     0
142
1.0
295
     0
296
     0
143
0.125
1001
ACAD_MLEADERVER
1070
     2
  0
MLINESTYLE
  5
5F
102
{ACAD_REACTORS
330
5E
102
}
330
5E
100
AcDbMlineStyle
  2
STANDARD
 70
     0
  3

 62
   256
 51
90.0
 52
90.0
 71
     2
 49
0.5
 62
   256
  6
BYLAYER
 49
-0.5
 62
   256
  6
BYLAYER
  0
ACDBPLACEHOLDER
  5
F
102
{ACAD_REACTORS
330
E
102
}
330
E
  0
SCALE
  5
43
102
{ACAD_REACTORS
330
42
102
}
330
42
100
AcDbScale
 70
     0
300
1:1
140
1.0
141
1.0
290
     1
  0
SCALE
  5
44
102
{ACAD_REACTORS
330
42
102
}
330
42
100
AcDbScale
 70
     0
300
1/128" = 1'-0"
140
0.0078125
141
12.0
290
     0
  0
SCALE
  5
45
102
{ACAD_REACTORS
330
42
102
}
330
42
100
AcDbScale
 70
     0
300
1/64" = 1'-0"
140
0.015625
141
12.0
290
     0
  0
SCALE
  5
46
102
{ACAD_REACTORS
330
42
102
}
330
42
100
AcDbScale
 70
     0
300
1/32" = 1'-0"
140
0.03125
141
12.0
290
     0
  0
SCALE
  5
47
102
{ACAD_REACTORS
330
42
102
}
330
42
100
AcDbScale
 70
     0
300
1/16" = 1'-0"
140
0.0625
141
12.0
290
     0
  0
SCALE
  5
48
102
{ACAD_REACTORS
330
42
102
}
330
42
100
AcDbScale
 70
     0
300
3/32" = 1'-0"
140
0.09375
141
12.0
290
     0
  0
SCALE
  5
49
102
{ACAD_REACTORS
330
42
102
}
330
42
100
AcDbScale
 70
     0
300
1/8" = 1'-0"
140
0.125
141
12.0
290
     0
  0
SCALE
  5
4A
102
{ACAD_REACTORS
330
42
102
}
330
42
100
AcDbScale
 70
     0
300
3/16" = 1'-0"
140
0.1875
141
12.0
290
     0
  0
SCALE
  5
4B
102
{ACAD_REACTORS
330
42
102
}
330
42
100
AcDbScale
 70
     0
300
1/4" = 1'-0"
140
0.25
141
12.0
290
     0
  0
SCALE
  5
4C
102
{ACAD_REACTORS
330
42
102
}
330
42
100
AcDbScale
 70
     0
300
3/8" = 1'-0"
140
0.375
141
12.0
290
     0
  0
SCALE
  5
4D
102
{ACAD_REACTORS
330
42
102
}
330
42
100
AcDbScale
 70
     0
300
1/2" = 1'-0"
140
0.5
141
12.0
290
     0
  0
SCALE
  5
4E
102
{ACAD_REACTORS
330
42
102
}
330
42
100
AcDbScale
 70
     0
300
3/4" = 1'-0"
140
0.75
141
12.0
290
     0
  0
SCALE
  5
4F
102
{ACAD_REACTORS
330
42
102
}
330
42
100
AcDbScale
 70
     0
300
1" = 1'-0"
140
1.0
141
12.0
290
     0
  0
SCALE
  5
50
102
{ACAD_REACTORS
330
42
102
}
330
42
100
AcDbScale
 70
     0
300
1-1/2" = 1'-0"
140
1.5
141
12.0
290
     0
  0
SCALE
  5
51
102
{ACAD_REACTORS
330
42
102
}
330
42
100
AcDbScale
 70
     0
300
3" = 1'-0"
140
3.0
141
12.0
290
     0
  0
SCALE
  5
52
102
{ACAD_REACTORS
330
42
102
}
330
42
100
AcDbScale
 70
     0
300
6" = 1'-0"
140
6.0
141
12.0
290
     0
  0
SCALE
  5
53
102
{ACAD_REACTORS
330
42
102
}
330
42
100
AcDbScale
 70
     0
300
1'-0" = 1'-0"
140
12.0
141
12.0
290
     0
  0
ACDBSECTIONVIEWSTYLE
  5
69
102
{ACAD_REACTORS
330
67
102
}
330
67
100
AcDbModelDocViewStyle
 70
     0
  3
Imperial24
290
     0
100
AcDbSectionViewStyle
 70
     0
 71
     0
 90
       78
 71
     1
340
55
 40
0.24
340
0
340
0
 40
0.24
300
I, O, Q, S, X, Z
 40
0.48
 90
        3
 40
0.18
 90
        1
 71
     2
340
68
 90
       25
340
5C
 90
       50
 40
0.24
 40
0.0
 40
0.24
 71
     3
340
55
 40
0.24
 90
        1
 40
0.75
 90
        1
300
%<\AcVar ViewType \f "%tc1">% %<\AcVar ViewSectionStartId>%-%<\AcVar ViewSectionEndId>%\PSCALE %<\AcVar ViewScale \f "%sn">%
 71
     4
300
ANSI31
 40
1.0
 90
        0
290
     0
290
     0
 90
        6
 40
0.0
 40
1.570796326794896
 40
0.2617993877991494
 40
1.308996938995747
 40
-0.2617993877991494
 40
1.832595714594046
  0
TABLESTYLE
  5
64
102
{ACAD_XDICTIONARY
360
2FE
102
}
102
{ACAD_REACTORS
330
63
102
}
330
63
100
AcDbTableStyle
  3
Standard
 70
     0
 71
     0
 40
0.06
 41
0.06
280
     0
281
     0
  7
Standard
140
0.18
170
     2
 62
     0
 63
     7
283
     0
274
    -2
284
     1
 64
     0
275
    -2
285
     1
 65
     0
276
    -2
286
     1
 66
     0
277
    -2
287
     1
 67
     0
278
    -2
288
     1
 68
     0
279
    -2
289
     1
 69
     0
  7
Standard
140
0.25
170
     5
 62
     0
 63
     7
283
     0
274
    -2
284
     1
 64
     0
275
    -2
285
     1
 65
     0
276
    -2
286
     1
 66
     0
277
    -2
287
     1
 67
     0
278
    -2
288
     1
 68
     0
279
    -2
289
     1
 69
     0
  7
Standard
140
0.18
170
     5
 62
     0
 63
     7
283
     0
274
    -2
284
     1
 64
     0
275
    -2
285
     1
 65
     0
276
    -2
286
     1
 66
     0
277
    -2
287
     1
 67
     0
278
    -2
288
     1
 68
     0
279
    -2
289
     1
 69
     0
  0
VISUALSTYLE
  5
2F
102
{ACAD_XDICTIONARY
360
6F9
102
}
102
{ACAD_REACTORS
330
29
102
}
330
29
100
AcDbVisualStyle
  2
2dWireframe
 70
     4
 71
     0
 72
     2
 73
     0
 90
        0
 40
-0.6
 41
-30.0
 62
     5
 63
     7
 74
     1
 91
        4
 64
     7
 65
   257
 75
     1
175
     1
 42
1.0
 92
        0
 66
   257
 43
1.0
 76
     1
 77
     6
 78
     2
 67
     7
 79
     5
170
     0
171
     0
290
     0
174
     0
 93
        1
 44
0.0
173
     0
291
     0
 45
0.0
1001
ACAD
1000
AcDbSavedByObjectVersion
1070
     0
  0
VISUALSTYLE
  5
2E
102
{ACAD_XDICTIONARY
360
6F7
102
}
102
{ACAD_REACTORS
330
29
102
}
330
29
100
AcDbVisualStyle
  2
Basic
 70
     7
 71
     1
 72
     0
 73
     1
 90
        0
 40
-0.6
 41
-30.0
 62
     5
 63
     7
 74
     0
 91
        4
 64
     7
 65
   257
 75
     1
175
     1
 42
1.0
 92
        8
 66
     7
 43
1.0
 76
     1
 77
     6
 78
     2
 67
     7
 79
     5
170
     0
171
     0
290
     0
174
     0
 93
        1
 44
0.0
173
     0
291
     1
 45
0.0
1001
ACAD
1000
AcDbSavedByObjectVersion
1070
     0
  0
VISUALSTYLE
  5
35
102
{ACAD_XDICTIONARY
360
705
102
}
102
{ACAD_REACTORS
330
29
102
}
330
29
100
AcDbVisualStyle
  2
Brighten
 70
    12
 71
     2
 72
     2
 73
     0
 90
        0
 40
-0.6
 41
-30.0
 62
     5
 63
     7
 74
     1
 91
        4
 64
     7
 65
   257
 75
     1
175
     1
 42
1.0
 92
        8
 66
     7
 43
1.0
 76
     1
 77
     6
 78
     2
 67
     7
 79
     5
170
     0
171
     0
290
     0
174
     0
 93
        1
 44
50.0
173
     0
291
     1
 45
0.0
1001
ACAD
1000
AcDbSavedByObjectVersion
1070
     0
  0
VISUALSTYLE
  5
39
102
{ACAD_XDICTIONARY
360
70D
102
}
102
{ACAD_REACTORS
330
29
102
}
330
29
100
AcDbVisualStyle
  2
ColorChange
 70
    16
 71
     2
 72
     2
 73
     3
 90
        0
 40
-0.6
 41
-30.0
 62
     5
 63
     8
 74
     1
 91
        4
 64
     7
 65
   257
 75
     1
175
     1
 42
1.0
 92
        8
 66
     8
 43
1.0
 76
     1
 77
     6
 78
     2
 67
     7
 79
     5
170
     0
171
     0
290
     0
174
     0
 93
        1
 44
0.0
173
     0
291
     1
 45
0.0
1001
ACAD
1000
AcDbSavedByObjectVersion
1070
     0
  0
VISUALSTYLE
  5
32
102
{ACAD_XDICTIONARY
360
6FF
102
}
102
{ACAD_REACTORS
330
29
102
}
330
29
100
AcDbVisualStyle
  2
Conceptual
 70
     9
 71
     3
 72
     2
 73
     0
 90
        0
 40
-0.6
 41
-30.0
 62
     5
 63
     7
 74
     2
 91
        2
 64
     7
 65
   257
 75
     1
175
     1
 42
179.0
 92
        8
 66
     7
 43
1.0
 76
     1
 77
     6
 78
     2
 67
     7
 79
     3
170
     0
171
     0
290
     0
174
     0
 93
        1
 44
0.0
173
     0
291
     0
 45
0.0
1001
ACAD
1000
AcDbSavedByObjectVersion
1070
     0
  0
VISUALSTYLE
  5
34
102
{ACAD_XDICTIONARY
360
703
102
}
102
{ACAD_REACTORS
330
29
102
}
330
29
100
AcDbVisualStyle
  2
Dim
 70
    11
 71
     2
 72
     2
 73
     0
 90
        0
 40
-0.6
 41
-30.0
 62
     5
 63
     7
 74
     1
 91
        4
 64
     7
 65
   257
 75
     1
175
     1
 42
1.0
 92
        8
 66
     7
 43
1.0
 76
     1
 77
     6
 78
     2
 67
     7
 79
     5
170
     0
171
     0
290
     0
174
     0
 93
        1
 44
-50.0
173
     0
291
     1
 45
0.0
1001
ACAD
1000
AcDbSavedByObjectVersion
1070
     0
  0
VISUALSTYLE
  5
41
102
{ACAD_XDICTIONARY
360
71D
102
}
102
{ACAD_REACTORS
330
29
102
}
330
29
100
AcDbVisualStyle
  2
EdgeColorOff
 70
    22
 71
     2
 72
     2
 73
     0
 90
        0
 40
-0.6
 41
-30.0
 62
     5
 63
     7
 74
     1
 91
        4
 64
     7
 65
   257
 75
     1
175
     1
 42
1.0
 92
        8
 66
     7
 43
1.0
 76
     1
 77
     6
 78
     2
 67
     7
 79
     5
170
     0
171
     0
290
     0
174
     0
 93
        1
 44
0.0
173
     0
291
     1
 45
0.0
1001
ACAD
1000
AcDbSavedByObjectVersion
1070
     0
  0
VISUALSTYLE
  5
38
102
{ACAD_XDICTIONARY
360
70B
102
}
102
{ACAD_REACTORS
330
29
102
}
330
29
100
AcDbVisualStyle
  2
Facepattern
 70
    15
 71
     2
 72
     2
 73
     0
 90
        0
 40
-0.6
 41
-30.0
 62
     5
 63
     7
 74
     1
 91
        4
 64
     7
 65
   257
 75
     1
175
     1
 42
1.0
 92
        8
 66
     7
 43
1.0
 76
     1
 77
     6
 78
     2
 67
     7
 79
     5
170
     0
171
     0
290
     0
174
     0
 93
        1
 44
0.0
173
     0
291
     1
 45
0.0
1001
ACAD
1000
AcDbSavedByObjectVersion
1070
     0
  0
VISUALSTYLE
  5
2A
102
{ACAD_XDICTIONARY
360
6EF
102
}
102
{ACAD_REACTORS
330
29
102
}
330
29
100
AcDbVisualStyle
  2
Flat
 70
     0
 71
     2
 72
     1
 73
     1
 90
        2
 40
-0.6
 41
30.0
 62
     5
 63
     7
 74
     0
 91
        0
 64
     7
 65
   257
 75
     1
175
     1
 42
1.0
 92
        8
 66
     7
 43
1.0
 76
     1
 77
     6
 78
     2
 67
     7
 79
     5
170
     0
171
     0
290
     0
174
     0
 93
       13
 44
0.0
173
     0
291
     1
 45
0.0
1001
ACAD
1000
AcDbSavedByObjectVersion
1070
     0
  0
VISUALSTYLE
  5
2B
102
{ACAD_XDICTIONARY
360
6F1
102
}
102
{ACAD_REACTORS
330
29
102
}
330
29
100
AcDbVisualStyle
  2
FlatWithEdges
 70
     1
 71
     2
 72
     1
 73
     1
 90
        2
 40
-0.6
 41
30.0
 62
     5
 63
     7
 74
     1
 91
        0
 64
     7
 65
   257
 75
     1
175
     1
 42
1.0
 92
        0
 66
   257
 43
1.0
 76
     1
 77
     6
 78
     2
 67
     7
 79
     5
170
     0
171
     0
290
     0
174
     0
 93
       13
 44
0.0
173
     0
291
     1
 45
0.0
1001
ACAD
1000
AcDbSavedByObjectVersion
1070
     0
  0
VISUALSTYLE
  5
2C
102
{ACAD_XDICTIONARY
360
6F3
102
}
102
{ACAD_REACTORS
330
29
102
}
330
29
100
AcDbVisualStyle
  2
Gouraud
 70
     2
 71
     2
 72
     2
 73
     1
 90
        2
 40
-0.6
 41
30.0
 62
     5
 63
     7
 74
     0
 91
        0
 64
     7
 65
   257
 75
     1
175
     1
 42
1.0
 92
        0
 66
     7
 43
1.0
 76
     1
 77
     6
 78
     2
 67
     7
 79
     5
170
     0
171
     0
290
     0
174
     0
 93
       13
 44
0.0
173
     0
291
     1
 45
0.0
1001
ACAD
1000
AcDbSavedByObjectVersion
1070
     0
  0
VISUALSTYLE
  5
2D
102
{ACAD_XDICTIONARY
360
6F5
102
}
102
{ACAD_REACTORS
330
29
102
}
330
29
100
AcDbVisualStyle
  2
GouraudWithEdges
 70
     3
 71
     2
 72
     2
 73
     1
 90
        2
 40
-0.6
 41
30.0
 62
     5
 63
     7
 74
     1
 91
        0
 64
     7
 65
   257
 75
     1
175
     1
 42
1.0
 92
        0
 66
   257
 43
1.0
 76
     1
 77
     6
 78
     2
 67
     7
 79
     5
170
     0
171
     0
290
     0
174
     0
 93
       13
 44
0.0
173
     0
291
     1
 45
0.0
1001
ACAD
1000
AcDbSavedByObjectVersion
1070
     0
  0
VISUALSTYLE
  5
31
102
{ACAD_XDICTIONARY
360
6FD
102
}
102
{ACAD_REACTORS
330
29
102
}
330
29
100
AcDbVisualStyle
  2
Hidden
 70
     6
 71
     1
 72
     2
 73
     2
 90
        0
 40
-0.6
 41
-30.0
 62
     5
 63
     7
 74
     2
 91
        2
 64
     7
 65
   257
 75
     2
175
     1
 42
40.0
 92
        0
 66
   257
 43
1.0
 76
     1
 77
     6
 78
     2
 67
     7
 79
     3
170
     0
171
     0
290
     0
174
     0
 93
        1
 44
0.0
173
     0
291
     0
 45
0.0
1001
ACAD
1000
AcDbSavedByObjectVersion
1070
     0
  0
VISUALSTYLE
  5
3F
102
{ACAD_XDICTIONARY
360
719
102
}
102
{ACAD_REACTORS
330
29
102
}
330
29
100
AcDbVisualStyle
  2
JitterOff
 70
    20
 71
     2
 72
     2
 73
     0
 90
        0
 40
-0.6
 41
-30.0
 62
     5
 63
     7
 74
     1
 91
        4
 64
     7
 65
   257
 75
     1
175
     1
 42
1.0
 92
       10
 66
     7
 43
1.0
 76
     1
 77
     6
 78
     2
 67
     7
 79
     5
170
     0
171
     0
290
     0
174
     0
 93
        1
 44
0.0
173
     0
291
     1
 45
0.0
1001
ACAD
1000
AcDbSavedByObjectVersion
1070
     0
  0
VISUALSTYLE
  5
37
102
{ACAD_XDICTIONARY
360
709
102
}
102
{ACAD_REACTORS
330
29
102
}
330
29
100
AcDbVisualStyle
  2
Linepattern
 70
    14
 71
     2
 72
     2
 73
     0
 90
        0
 40
-0.6
 41
-30.0
 62
     5
 63
     7
 74
     1
 91
        4
 64
     7
 65
   257
 75
     7
175
     7
 42
1.0
 92
        8
 66
     7
 43
1.0
 76
     1
 77
     6
 78
     2
 67
     7
 79
     5
170
     0
171
     0
290
     0
174
     0
 93
        1
 44
0.0
173
     0
291
     1
 45
0.0
1001
ACAD
1000
AcDbSavedByObjectVersion
1070
     0
  0
VISUALSTYLE
  5
40
102
{ACAD_XDICTIONARY
360
71B
102
}
102
{ACAD_REACTORS
330
29
102
}
330
29
100
AcDbVisualStyle
  2
OverhangOff
 70
    21
 71
     2
 72
     2
 73
     0
 90
        0
 40
-0.6
 41
-30.0
 62
     5
 63
     7
 74
     1
 91
        4
 64
     7
 65
   257
 75
     1
175
     1
 42
1.0
 92
        9
 66
     7
 43
1.0
 76
     1
 77
     6
 78
     2
 67
     7
 79
     5
170
     0
171
     0
290
     0
174
     0
 93
        1
 44
0.0
173
     0
291
     1
 45
0.0
1001
ACAD
1000
AcDbSavedByObjectVersion
1070
     0
  0
VISUALSTYLE
  5
33
102
{ACAD_XDICTIONARY
360
701
102
}
102
{ACAD_REACTORS
330
29
102
}
330
29
100
AcDbVisualStyle
  2
Realistic
 70
     8
 71
     2
 72
     2
 73
     0
 90
        2
 40
-0.6
 41
30.0
 62
     5
 63
     7
 74
     0
 91
        0
 64
     7
 65
   257
 75
     1
175
     1
 42
1.0
 92
        8
 66
   257
 43
1.0
 76
     1
 77
     6
 78
     2
 67
     7
 79
     3
170
     0
171
     0
290
     0
174
     0
 93
       13
 44
0.0
173
     0
291
     0
 45
0.0
1001
ACAD
1000
AcDbSavedByObjectVersion
1070
     0
  0
VISUALSTYLE
  5
3E
102
{ACAD_XDICTIONARY
360
717
102
}
102
{ACAD_REACTORS
330
29
102
}
330
29
100
AcDbVisualStyle
  2
Shaded
 70
    27
 71
     2
 72
     2
 73
     1
 90
        2
 40
-0.6
 41
30.0
 62
     5
 63
     7
 74
     0
 91
        4
 64
     7
 65
   257
 75
     1
175
     1
 42
1.0
 92
        8
 66
   257
 43
1.0
 76
     1
 77
     6
 78
     2
 67
     8
 79
     3
170
     0
171
     0
290
     0
174
     0
 93
        5
 44
0.0
173
     0
291
     0
 45
0.0
1001
ACAD
1000
AcDbSavedByObjectVersion
1070
     0
  0
VISUALSTYLE
  5
3D
102
{ACAD_XDICTIONARY
360
715
102
}
102
{ACAD_REACTORS
330
29
102
}
330
29
100
AcDbVisualStyle
  2
Shaded with edges
 70
    26
 71
     2
 72
     2
 73
     1
 90
        2
 40
-0.6
 41
30.0
 62
     5
 63
     7
 74
     1
 91
       10
 64
     7
 65
   257
 75
     2
175
     1
 42
1.0
 92
        8
 66
   257
 43
1.0
 76
     1
 77
     6
 78
     2
 67
     7
 79
     3
170
     0
171
     0
290
     0
174
     0
 93
        5
 44
0.0
173
     0
291
     0
 45
0.0
1001
ACAD
1000
AcDbSavedByObjectVersion
1070
     0
  0
VISUALSTYLE
  5
3A
102
{ACAD_XDICTIONARY
360
70F
102
}
102
{ACAD_REACTORS
330
29
102
}
330
29
100
AcDbVisualStyle
  2
Shades of Gray
 70
    23
 71
     2
 72
     2
 73
     3
 90
        0
 40
-0.6
 41
-30.0
 62
     5
 63
     7
 74
     2
 91
        2
 64
     7
 65
     7
 75
     1
175
     1
 42
40.0
 92
        8
 66
     7
 43
1.0
 76
     1
 77
     6
 78
     2
 67
     7
 79
     3
170
     0
171
     0
290
     0
174
     0
 93
        1
 44
0.0
173
     0
291
     0
 45
0.0
1001
ACAD
1000
AcDbSavedByObjectVersion
1070
     0
  0
VISUALSTYLE
  5
3B
102
{ACAD_XDICTIONARY
360
711
102
}
102
{ACAD_REACTORS
330
29
102
}
330
29
100
AcDbVisualStyle
  2
Sketchy
 70
    24
 71
     1
 72
     2
 73
     2
 90
        0
 40
-0.6
 41
-30.0
 62
     5
 63
     7
 74
     2
 91
        2
 64
     7
 65
     7
 75
     1
175
     1
 42
40.0
 92
       11
 66
     7
 43
1.0
 76
     1
 77
     6
 78
     2
 67
     7
 79
     6
170
     0
171
     0
290
     0
174
     0
 93
        1
 44
0.0
173
     0
291
     0
 45
0.0
1001
ACAD
1000
AcDbSavedByObjectVersion
1070
     0
  0
VISUALSTYLE
  5
36
102
{ACAD_XDICTIONARY
360
707
102
}
102
{ACAD_REACTORS
330
29
102
}
330
29
100
AcDbVisualStyle
  2
Thicken
 70
    13
 71
     2
 72
     2
 73
     0
 90
        0
 40
-0.6
 41
-30.0
 62
     5
 63
     7
 74
     1
 91
        4
 64
     7
 65
   257
 75
     1
175
     1
 42
1.0
 92
       12
 66
     7
 43
1.0
 76
     1
 77
     6
 78
     2
 67
     7
 79
     5
170
     0
171
     0
290
     0
174
     0
 93
        1
 44
0.0
173
     0
291
     1
 45
0.0
1001
ACAD
1000
AcDbSavedByObjectVersion
1070
     0
  0
VISUALSTYLE
  5
30
102
{ACAD_XDICTIONARY
360
6FB
102
}
102
{ACAD_REACTORS
330
29
102
}
330
29
100
AcDbVisualStyle
  2
Wireframe
 70
     5
 71
     0
 72
     2
 73
     0
 90
        0
 40
-0.6
 41
-30.0
 62
     5
 63
     7
 74
     1
 91
        4
 64
     7
 65
   257
 75
     1
175
     1
 42
1.0
 92
        0
 66
   257
 43
1.0
 76
     1
 77
     6
 78
     2
 67
     7
 79
     3
170
     0
171
     0
290
     0
174
     0
 93
        1
 44
0.0
173
     0
291
     0
 45
0.0
1001
ACAD
1000
AcDbSavedByObjectVersion
1070
     0
  0
VISUALSTYLE
  5
3C
102
{ACAD_XDICTIONARY
360
713
102
}
102
{ACAD_REACTORS
330
29
102
}
330
29
100
AcDbVisualStyle
  2
X-Ray
 70
    25
 71
     2
 72
     2
 73
     1
 90
        1
 40
0.5
 41
-30.0
 62
     5
 63
     7
 74
     1
 91
        0
 64
     7
 65
   257
 75
     1
175
     1
 42
1.0
 92
        8
 66
     7
 43
1.0
 76
     1
 77
     6
 78
     2
 67
     7
 79
     3
170
     0
171
     0
290
     0
174
     0
 93
       13
 44
0.0
173
     0
291
     0
 45
0.0
1001
ACAD
1000
AcDbSavedByObjectVersion
1070
     0
  0
DICTIONARYVAR
  5
2BC
102
{ACAD_REACTORS
330
2B7
102
}
330
2B7
100
DictionaryVariables
280
     0
  1
1:1
  0
DICTIONARYVAR
  5
2B9
102
{ACAD_REACTORS
330
2B7
102
}
330
2B7
100
DictionaryVariables
280
     0
  1
STANDARD
  0
DICTIONARYVAR
  5
2B8
102
{ACAD_REACTORS
330
2B7
102
}
330
2B7
100
DictionaryVariables
280
     0
  1
STANDARD
  0
DICTIONARYVAR
  5
2BA
102
{ACAD_REACTORS
330
2B7
102
}
330
2B7
100
DictionaryVariables
280
     0
  1
Imperial24
  0
DICTIONARYVAR
  5
2BB
102
{ACAD_REACTORS
330
2B7
102
}
330
2B7
100
DictionaryVariables
280
     0
  1
Imperial24
  0
DICTIONARYVAR
  5
2BF
102
{ACAD_REACTORS
330
2B7
102
}
330
2B7
100
DictionaryVariables
280
     0
  1
1
  0
DICTIONARYVAR
  5
2BE
102
{ACAD_REACTORS
330
2B7
102
}
330
2B7
100
DictionaryVariables
280
     0
  1
0
  0
DICTIONARYVAR
  5
2BD
102
{ACAD_REACTORS
330
2B7
102
}
330
2B7
100
DictionaryVariables
280
     0
  1
127
  0
DICTIONARYVAR
  5
6E8
102
{ACAD_REACTORS
330
2B7
102
}
330
2B7
100
DictionaryVariables
280
     0
  1
2
  0
DICTIONARY
  5
720
330
6F
100
AcDbDictionary
280
     1
281
     1
  3
ACAD_XREC_ROUNDTRIP
360
721
  0
DICTIONARY
  5
722
330
73
100
AcDbDictionary
280
     1
281
     1
  3
ACAD_XREC_ROUNDTRIP
360
723
  0
DICTIONARY
  5
1A
330
19
100
AcDbDictionary
280
     1
281
     1
  3
ACAD_XREC_ROUNDTRIP
360
6ED
  3
BUMPTILE
360
1C
  3
DIFFUSETILE
360
1B
  3
OPACITYTILE
360
1F
  3
REFLECTIONTILE
360
1E
  3
REFRACTIONTILE
360
20
  3
SPECULARTILE
360
1D
  0
DICTIONARY
  5
12
330
11
100
AcDbDictionary
280
     1
281
     1
  3
ACAD_XREC_ROUNDTRIP
360
6EC
  3
BUMPTILE
360
14
  3
DIFFUSETILE
360
13
  3
OPACITYTILE
360
17
  3
REFLECTIONTILE
360
16
  3
REFRACTIONTILE
360
18
  3
SPECULARTILE
360
15
  0
DICTIONARY
  5
22
330
21
100
AcDbDictionary
280
     1
281
     1
  3
ACAD_XREC_ROUNDTRIP
360
6EE
  3
BUMPTILE
360
24
  3
DIFFUSETILE
360
23
  3
OPACITYTILE
360
27
  3
REFLECTIONTILE
360
26
  3
REFRACTIONTILE
360
28
  3
SPECULARTILE
360
25
  0
DICTIONARY
  5
2FE
330
64
100
AcDbDictionary
280
     1
281
     1
  3
ACAD_ROUNDTRIP_2008_TABLESTYLE_CELLSTYLEMAP
360
6E9
  3
ACAD_XREC_ROUNDTRIP
360
71F
  0
DICTIONARY
  5
6F9
330
2F
100
AcDbDictionary
280
     1
281
     1
  3
ACAD_XREC_ROUNDTRIP
360
6FA
  0
DICTIONARY
  5
6F7
330
2E
100
AcDbDictionary
280
     1
281
     1
  3
ACAD_XREC_ROUNDTRIP
360
6F8
  0
DICTIONARY
  5
705
330
35
100
AcDbDictionary
280
     1
281
     1
  3
ACAD_XREC_ROUNDTRIP
360
706
  0
DICTIONARY
  5
70D
330
39
100
AcDbDictionary
280
     1
281
     1
  3
ACAD_XREC_ROUNDTRIP
360
70E
  0
DICTIONARY
  5
6FF
330
32
100
AcDbDictionary
280
     1
281
     1
  3
ACAD_XREC_ROUNDTRIP
360
700
  0
DICTIONARY
  5
703
330
34
100
AcDbDictionary
280
     1
281
     1
  3
ACAD_XREC_ROUNDTRIP
360
704
  0
DICTIONARY
  5
71D
330
41
100
AcDbDictionary
280
     1
281
     1
  3
ACAD_XREC_ROUNDTRIP
360
71E
  0
DICTIONARY
  5
70B
330
38
100
AcDbDictionary
280
     1
281
     1
  3
ACAD_XREC_ROUNDTRIP
360
70C
  0
DICTIONARY
  5
6EF
330
2A
100
AcDbDictionary
280
     1
281
     1
  3
ACAD_XREC_ROUNDTRIP
360
6F0
  0
DICTIONARY
  5
6F1
330
2B
100
AcDbDictionary
280
     1
281
     1
  3
ACAD_XREC_ROUNDTRIP
360
6F2
  0
DICTIONARY
  5
6F3
330
2C
100
AcDbDictionary
280
     1
281
     1
  3
ACAD_XREC_ROUNDTRIP
360
6F4
  0
DICTIONARY
  5
6F5
330
2D
100
AcDbDictionary
280
     1
281
     1
  3
ACAD_XREC_ROUNDTRIP
360
6F6
  0
DICTIONARY
  5
6FD
330
31
100
AcDbDictionary
280
     1
281
     1
  3
ACAD_XREC_ROUNDTRIP
360
6FE
  0
DICTIONARY
  5
719
330
3F
100
AcDbDictionary
280
     1
281
     1
  3
ACAD_XREC_ROUNDTRIP
360
71A
  0
DICTIONARY
  5
709
330
37
100
AcDbDictionary
280
     1
281
     1
  3
ACAD_XREC_ROUNDTRIP
360
70A
  0
DICTIONARY
  5
71B
330
40
100
AcDbDictionary
280
     1
281
     1
  3
ACAD_XREC_ROUNDTRIP
360
71C
  0
DICTIONARY
  5
701
330
33
100
AcDbDictionary
280
     1
281
     1
  3
ACAD_XREC_ROUNDTRIP
360
702
  0
DICTIONARY
  5
717
330
3E
100
AcDbDictionary
280
     1
281
     1
  3
ACAD_XREC_ROUNDTRIP
360
718
  0
DICTIONARY
  5
715
330
3D
100
AcDbDictionary
280
     1
281
     1
  3
ACAD_XREC_ROUNDTRIP
360
716
  0
DICTIONARY
  5
70F
330
3A
100
AcDbDictionary
280
     1
281
     1
  3
ACAD_XREC_ROUNDTRIP
360
710
  0
DICTIONARY
  5
711
330
3B
100
AcDbDictionary
280
     1
281
     1
  3
ACAD_XREC_ROUNDTRIP
360
712
  0
DICTIONARY
  5
707
330
36
100
AcDbDictionary
280
     1
281
     1
  3
ACAD_XREC_ROUNDTRIP
360
708
  0
DICTIONARY
  5
6FB
330
30
100
AcDbDictionary
280
     1
281
     1
  3
ACAD_XREC_ROUNDTRIP
360
6FC
  0
DICTIONARY
  5
713
330
3C
100
AcDbDictionary
280
     1
281
     1
  3
ACAD_XREC_ROUNDTRIP
360
714
  0
XRECORD
  5
721
102
{ACAD_REACTORS
330
720
102
}
330
720
100
AcDbXrecord
280
     1
102
SHADEPLOT
 70
     0
102
SHADEPLOTRESLEVEL
 70
     2
102
SHADEPLOTCUSTOMDPI
 70
   300
  0
XRECORD
  5
723
102
{ACAD_REACTORS
330
722
102
}
330
722
100
AcDbXrecord
280
     1
102
SHADEPLOT
 70
     0
102
SHADEPLOTRESLEVEL
 70
     2
102
SHADEPLOTCUSTOMDPI
 70
   300
  0
XRECORD
  5
6ED
102
{ACAD_REACTORS
330
1A
102
}
330
1A
100
AcDbXrecord
280
     1
102
MATERIAL
148
0.0
149
0.0
149
0.0
 93
        0
 94
      127
282
     0
 72
     0
 77
     0
171
     0
175
     0
179
     0
273
     0
  0
XRECORD
  5
1C
102
{ACAD_REACTORS
330
1A
102
}
330
1A
100
AcDbXrecord
280
     1
270
     1
271
     1
  0
XRECORD
  5
1B
102
{ACAD_REACTORS
330
1A
102
}
330
1A
100
AcDbXrecord
280
     1
270
     1
271
     1
  0
XRECORD
  5
1F
102
{ACAD_REACTORS
330
1A
102
}
330
1A
100
AcDbXrecord
280
     1
270
     1
271
     1
  0
XRECORD
  5
1E
102
{ACAD_REACTORS
330
1A
102
}
330
1A
100
AcDbXrecord
280
     1
270
     1
271
     1
  0
XRECORD
  5
20
102
{ACAD_REACTORS
330
1A
102
}
330
1A
100
AcDbXrecord
280
     1
270
     1
271
     1
  0
XRECORD
  5
1D
102
{ACAD_REACTORS
330
1A
102
}
330
1A
100
AcDbXrecord
280
     1
270
     1
271
     1
  0
XRECORD
  5
6EC
102
{ACAD_REACTORS
330
12
102
}
330
12
100
AcDbXrecord
280
     1
102
MATERIAL
148
0.0
149
0.0
149
0.0
 93
        0
 94
      127
282
     0
 72
     0
 77
     0
171
     0
175
     0
179
     0
273
     0
  0
XRECORD
  5
14
102
{ACAD_REACTORS
330
12
102
}
330
12
100
AcDbXrecord
280
     1
270
     1
271
     1
  0
XRECORD
  5
13
102
{ACAD_REACTORS
330
12
102
}
330
12
100
AcDbXrecord
280
     1
270
     1
271
     1
  0
XRECORD
  5
17
102
{ACAD_REACTORS
330
12
102
}
330
12
100
AcDbXrecord
280
     1
270
     1
271
     1
  0
XRECORD
  5
16
102
{ACAD_REACTORS
330
12
102
}
330
12
100
AcDbXrecord
280
     1
270
     1
271
     1
  0
XRECORD
  5
18
102
{ACAD_REACTORS
330
12
102
}
330
12
100
AcDbXrecord
280
     1
270
     1
271
     1
  0
XRECORD
  5
15
102
{ACAD_REACTORS
330
12
102
}
330
12
100
AcDbXrecord
280
     1
270
     1
271
     1
  0
XRECORD
  5
6EE
102
{ACAD_REACTORS
330
22
102
}
330
22
100
AcDbXrecord
280
     1
102
MATERIAL
148
0.0
149
0.0
149
0.0
 93
        0
 94
      127
282
     0
 72
     0
 77
     0
171
     0
175
     0
179
     0
273
     0
  0
XRECORD
  5
24
102
{ACAD_REACTORS
330
22
102
}
330
22
100
AcDbXrecord
280
     1
270
     1
271
     1
  0
XRECORD
  5
23
102
{ACAD_REACTORS
330
22
102
}
330
22
100
AcDbXrecord
280
     1
270
     1
271
     1
  0
XRECORD
  5
27
102
{ACAD_REACTORS
330
22
102
}
330
22
100
AcDbXrecord
280
     1
270
     1
271
     1
  0
XRECORD
  5
26
102
{ACAD_REACTORS
330
22
102
}
330
22
100
AcDbXrecord
280
     1
270
     1
271
     1
  0
XRECORD
  5
28
102
{ACAD_REACTORS
330
22
102
}
330
22
100
AcDbXrecord
280
     1
270
     1
271
     1
  0
XRECORD
  5
25
102
{ACAD_REACTORS
330
22
102
}
330
22
100
AcDbXrecord
280
     1
270
     1
271
     1
  0
CELLSTYLEMAP
  5
6E9
102
{ACAD_REACTORS
330
2FE
102
}
330
2FE
100
AcDbCellStyleMap
 90
        3
300
CELLSTYLE
  1
TABLEFORMAT_BEGIN
 90
        5
170
     1
 91
        0
 92
    32768
 62
   257
 93
        1
300
CONTENTFORMAT
  1
CONTENTFORMAT_BEGIN
 90
        0
 91
        0
 92
      512
 93
        0
300

 40
0.0
140
1.0
 94
        5
 62
     0
340
55
144
0.25
309
CONTENTFORMAT_END
171
     0
 94
        0
309
TABLEFORMAT_END
  1
CELLSTYLE_BEGIN
 90
        1
 91
        1
300
_TITLE
309
CELLSTYLE_END
300
CELLSTYLE
  1
TABLEFORMAT_BEGIN
 90
        5
170
     1
 91
        0
 92
        0
 62
   257
 93
        1
300
CONTENTFORMAT
  1
CONTENTFORMAT_BEGIN
 90
        0
 91
        0
 92
      512
 93
        0
300

 40
0.0
140
1.0
 94
        5
 62
     0
340
55
144
0.18
309
CONTENTFORMAT_END
171
     0
 94
        0
309
TABLEFORMAT_END
  1
CELLSTYLE_BEGIN
 90
        2
 91
        1
300
_HEADER
309
CELLSTYLE_END
300
CELLSTYLE
  1
TABLEFORMAT_BEGIN
 90
        5
170
     1
 91
        0
 92
        0
 62
   257
 93
        1
300
CONTENTFORMAT
  1
CONTENTFORMAT_BEGIN
 90
        0
 91
        0
 92
      512
 93
        0
300

 40
0.0
140
1.0
 94
        2
 62
     0
340
55
144
0.18
309
CONTENTFORMAT_END
171
     0
 94
        0
309
TABLEFORMAT_END
  1
CELLSTYLE_BEGIN
 90
        3
 91
        2
300
_DATA
309
CELLSTYLE_END
  0
XRECORD
  5
71F
102
{ACAD_REACTORS
330
2FE
102
}
330
2FE
100
AcDbXrecord
280
     1
102
ACAD_ROUNDTRIP_PRE2007_TABLESTYLE
 90
      512
 91
        0
  1

 92
      512
 93
        0
  2

 94
      512
 95
        0
  3

  0
XRECORD
  5
6FA
102
{ACAD_REACTORS
330
6F9
102
}
330
6F9
100
AcDbXrecord
280
     1
102
RTVSPost2010Prop28
280
     1
102
RTVSPost2010PropOp28
 70
     1
102
RTVSPost2010Prop29
280
     1
102
RTVSPost2010PropOp29
 70
     1
102
RTVSPost2010Prop30
280
     0
102
RTVSPost2010PropOp30
 70
     1
102
RTVSPost2010Prop31
280
     0
102
RTVSPost2010PropOp31
 70
     1
102
RTVSPost2010Prop32
280
     0
102
RTVSPost2010PropOp32
 70
     1
102
RTVSPost2010Prop33
280
     0
102
RTVSPost2010PropOp33
 70
     1
102
RTVSPost2010Prop34
280
     0
102
RTVSPost2010PropOp34
 70
     1
102
RTVSPost2010Prop35
280
     0
102
RTVSPost2010PropOp35
 70
     1
102
RTVSPost2010Prop36
280
     0
102
RTVSPost2010PropOp36
 70
     1
102
RTVSPost2010Prop37
 90
       50
102
RTVSPost2010PropOp37
 70
     1
102
RTVSPost2010Prop38
140
0.0
102
RTVSPost2010PropOp38
 70
     1
102
RTVSPost2010Prop39
140
1.0
102
RTVSPost2010PropOp39
 70
     1
102
RTVSPost2010Prop40
 90
        0
102
RTVSPost2010PropOp40
 70
     1
102
RTVSPost2010Prop41ColorIndex
 90
       18
102
RTVSPost2010Prop41ColorRGB
 90
        0
102
RTVSPost2010PropOp41
 70
     1
102
RTVSPost2010Prop42
 90
       50
102
RTVSPost2010PropOp42
 70
     1
102
RTVSPost2010Prop43
 90
        3
102
RTVSPost2010PropOp43
 70
     1
102
RTVSPost2010Prop44ColorIndex
 90
        5
102
RTVSPost2010Prop44ColorRGB
 90
      255
102
RTVSPost2010PropOp44
 70
     1
102
RTVSPost2010Prop45
280
     0
102
RTVSPost2010PropOp45
 70
     1
102
RTVSPost2010Prop46
 90
       50
102
RTVSPost2010PropOp46
 70
     1
102
RTVSPost2010Prop47
 90
       50
102
RTVSPost2010PropOp47
 70
     1
102
RTVSPost2010Prop48
 90
       50
102
RTVSPost2010PropOp48
 70
     1
102
RTVSPost2010Prop49
280
     0
102
RTVSPost2010PropOp49
 70
     1
102
RTVSPost2010Prop50
 90
       50
102
RTVSPost2010PropOp50
 70
     1
102
RTVSPost2010Prop51ColorIndex
 90
      256
102
RTVSPost2010Prop51ColorRGB
 90
-16777216
102
RTVSPost2010PropOp51
 70
     0
102
RTVSPost2010Prop52
140
1.0
102
RTVSPost2010PropOp52
 70
     0
102
RTVSPost2010Prop53
 90
        2
102
RTVSPost2010PropOp53
 70
     1
102
RTVSPost2010Prop54
  1
strokes_ogs.tif
102
RTVSPost2010PropOp54
 70
     1
102
RTVSPost2010Prop55
280
     0
102
RTVSPost2010PropOp55
 70
     1
102
RTVSPost2010Prop56
140
1.0
102
RTVSPost2010PropOp56
 70
     1
102
RTVSPost2010Prop57
140
1.0
102
RTVSPost2010PropOp57
 70
     1
102
RTVSPropertyOp0
 70
     1
102
RTVSPropertyOp1
 70
     1
102
RTVSPropertyOp2
 70
     1
102
RTVSPropertyOp3
 70
     1
102
RTVSPropertyOp4
 70
     1
102
RTVSPropertyOp5
 70
     1
102
RTVSPropertyOp6
 70
     1
102
RTVSPropertyOp7
 70
     1
102
RTVSPropertyOp8
 70
     1
102
RTVSPropertyOp9
 70
     1
102
RTVSPropertyOp10
 70
     1
102
RTVSPropertyOp11
 70
     1
102
RTVSPropertyOp12
 70
     1
102
RTVSPropertyOp13
 70
     1
102
RTVSPropertyOp14
 70
     1
102
RTVSPropertyOp15
 70
     1
102
RTVSPropertyOp16
 70
     1
102
RTVSPropertyOp17
 70
     1
102
RTVSPropertyOp18
 70
     1
102
RTVSPropertyOp19
 70
     1
102
RTVSPropertyOp20
 70
     1
102
RTVSPropertyOp21
 70
     1
102
RTVSPropertyOp22
 70
     1
102
RTVSPropertyOp23
 70
     1
102
RTVSPropertyOp24
 70
     1
102
RTVSPropertyOp25
 70
     1
102
RTVSPropertyOp26
 70
     1
102
RTVSPropertyOp27
 70
     1
102
RTVSPropertyOp28
 70
     1
102
RTVSPropertyOp29
 70
     1
102
RTVSPropertyOp30
 70
     1
102
RTVSPropertyOp31
 70
     1
102
RTVSPropertyOp32
 70
     1
102
RTVSPropertyOp33
 70
     1
102
RTVSPropertyOp34
 70
     1
102
RTVSPropertyOp35
 70
     1
102
RTVSPropertyOp36
 70
     1
102
RTVSPropertyOp37
 70
     1
102
RTVSPropertyOp38
 70
     1
102
RTVSPropertyOp39
 70
     1
102
RTVSPropertyOp40
 70
     1
102
RTVSPropertyOp41
 70
     1
102
RTVSPropertyOp42
 70
     1
102
RTVSPropertyOp43
 70
     1
102
RTVSPropertyOp44
 70
     1
102
RTVSPropertyOp45
 70
     1
102
RTVSPropertyOp46
 70
     1
102
RTVSPropertyOp47
 70
     1
102
RTVSPropertyOp48
 70
     1
102
RTVSPropertyOp49
 70
     1
102
RTVSPropertyOp50
 70
     1
102
RTVSPropertyOp51
 70
     0
102
RTVSPropertyOp52
 70
     0
102
RTVSPropertyOp53
 70
     1
102
RTVSPropertyOp54
 70
     1
102
RTVSPropertyOp55
 70
     1
102
RTVSPropertyOp56
 70
     1
102
RTVSPropertyOp57
 70
     1
102
RTVSPropertyOp58
 70
     1
102
RTVSPropertyOp59
 70
     1
102
RTVSPropertyOp60
 70
     1
102
RTVSPropertyOp61
 70
     1
102
RTVSPropertyOp62
 70
     1
  0
XRECORD
  5
6F8
102
{ACAD_REACTORS
330
6F7
102
}
330
6F7
100
AcDbXrecord
280
     1
102
RTVSPost2010Prop28
280
     0
102
RTVSPost2010PropOp28
 70
     1
102
RTVSPost2010Prop29
280
     1
102
RTVSPost2010PropOp29
 70
     1
102
RTVSPost2010Prop30
280
     1
102
RTVSPost2010PropOp30
 70
     1
102
RTVSPost2010Prop31
280
     0
102
RTVSPost2010PropOp31
 70
     1
102
RTVSPost2010Prop32
280
     0
102
RTVSPost2010PropOp32
 70
     1
102
RTVSPost2010Prop33
280
     0
102
RTVSPost2010PropOp33
 70
     1
102
RTVSPost2010Prop34
280
     0
102
RTVSPost2010PropOp34
 70
     1
102
RTVSPost2010Prop35
280
     0
102
RTVSPost2010PropOp35
 70
     1
102
RTVSPost2010Prop36
280
     0
102
RTVSPost2010PropOp36
 70
     1
102
RTVSPost2010Prop37
 90
       50
102
RTVSPost2010PropOp37
 70
     1
102
RTVSPost2010Prop38
140
0.0
102
RTVSPost2010PropOp38
 70
     1
102
RTVSPost2010Prop39
140
1.0
102
RTVSPost2010PropOp39
 70
     1
102
RTVSPost2010Prop40
 90
        0
102
RTVSPost2010PropOp40
 70
     1
102
RTVSPost2010Prop41ColorIndex
 90
       18
102
RTVSPost2010Prop41ColorRGB
 90
        0
102
RTVSPost2010PropOp41
 70
     1
102
RTVSPost2010Prop42
 90
       50
102
RTVSPost2010PropOp42
 70
     1
102
RTVSPost2010Prop43
 90
        3
102
RTVSPost2010PropOp43
 70
     1
102
RTVSPost2010Prop44ColorIndex
 90
        5
102
RTVSPost2010Prop44ColorRGB
 90
      255
102
RTVSPost2010PropOp44
 70
     1
102
RTVSPost2010Prop45
280
     0
102
RTVSPost2010PropOp45
 70
     1
102
RTVSPost2010Prop46
 90
       50
102
RTVSPost2010PropOp46
 70
     1
102
RTVSPost2010Prop47
 90
       50
102
RTVSPost2010PropOp47
 70
     1
102
RTVSPost2010Prop48
 90
       50
102
RTVSPost2010PropOp48
 70
     1
102
RTVSPost2010Prop49
280
     0
102
RTVSPost2010PropOp49
 70
     1
102
RTVSPost2010Prop50
 90
       50
102
RTVSPost2010PropOp50
 70
     1
102
RTVSPost2010Prop51ColorIndex
 90
      256
102
RTVSPost2010Prop51ColorRGB
 90
-16777216
102
RTVSPost2010PropOp51
 70
     0
102
RTVSPost2010Prop52
140
1.0
102
RTVSPost2010PropOp52
 70
     0
102
RTVSPost2010Prop53
 90
        2
102
RTVSPost2010PropOp53
 70
     1
102
RTVSPost2010Prop54
  1
strokes_ogs.tif
102
RTVSPost2010PropOp54
 70
     1
102
RTVSPost2010Prop55
280
     0
102
RTVSPost2010PropOp55
 70
     1
102
RTVSPost2010Prop56
140
1.0
102
RTVSPost2010PropOp56
 70
     1
102
RTVSPost2010Prop57
140
1.0
102
RTVSPost2010PropOp57
 70
     1
102
RTVSPropertyOp0
 70
     1
102
RTVSPropertyOp1
 70
     1
102
RTVSPropertyOp2
 70
     1
102
RTVSPropertyOp3
 70
     1
102
RTVSPropertyOp4
 70
     1
102
RTVSPropertyOp5
 70
     1
102
RTVSPropertyOp6
 70
     1
102
RTVSPropertyOp7
 70
     1
102
RTVSPropertyOp8
 70
     1
102
RTVSPropertyOp9
 70
     1
102
RTVSPropertyOp10
 70
     1
102
RTVSPropertyOp11
 70
     1
102
RTVSPropertyOp12
 70
     1
102
RTVSPropertyOp13
 70
     1
102
RTVSPropertyOp14
 70
     1
102
RTVSPropertyOp15
 70
     1
102
RTVSPropertyOp16
 70
     1
102
RTVSPropertyOp17
 70
     1
102
RTVSPropertyOp18
 70
     1
102
RTVSPropertyOp19
 70
     1
102
RTVSPropertyOp20
 70
     1
102
RTVSPropertyOp21
 70
     1
102
RTVSPropertyOp22
 70
     1
102
RTVSPropertyOp23
 70
     1
102
RTVSPropertyOp24
 70
     1
102
RTVSPropertyOp25
 70
     1
102
RTVSPropertyOp26
 70
     1
102
RTVSPropertyOp27
 70
     1
102
RTVSPropertyOp28
 70
     1
102
RTVSPropertyOp29
 70
     1
102
RTVSPropertyOp30
 70
     1
102
RTVSPropertyOp31
 70
     1
102
RTVSPropertyOp32
 70
     1
102
RTVSPropertyOp33
 70
     1
102
RTVSPropertyOp34
 70
     1
102
RTVSPropertyOp35
 70
     1
102
RTVSPropertyOp36
 70
     1
102
RTVSPropertyOp37
 70
     1
102
RTVSPropertyOp38
 70
     1
102
RTVSPropertyOp39
 70
     1
102
RTVSPropertyOp40
 70
     1
102
RTVSPropertyOp41
 70
     1
102
RTVSPropertyOp42
 70
     1
102
RTVSPropertyOp43
 70
     1
102
RTVSPropertyOp44
 70
     1
102
RTVSPropertyOp45
 70
     1
102
RTVSPropertyOp46
 70
     1
102
RTVSPropertyOp47
 70
     1
102
RTVSPropertyOp48
 70
     1
102
RTVSPropertyOp49
 70
     1
102
RTVSPropertyOp50
 70
     1
102
RTVSPropertyOp51
 70
     0
102
RTVSPropertyOp52
 70
     0
102
RTVSPropertyOp53
 70
     1
102
RTVSPropertyOp54
 70
     1
102
RTVSPropertyOp55
 70
     1
102
RTVSPropertyOp56
 70
     1
102
RTVSPropertyOp57
 70
     1
102
RTVSPropertyOp58
 70
     1
102
RTVSPropertyOp59
 70
     1
102
RTVSPropertyOp60
 70
     1
102
RTVSPropertyOp61
 70
     1
102
RTVSPropertyOp62
 70
     1
  0
XRECORD
  5
706
102
{ACAD_REACTORS
330
705
102
}
330
705
100
AcDbXrecord
280
     1
102
RTVSPost2010Prop28
280
     0
102
RTVSPost2010PropOp28
 70
     1
102
RTVSPost2010Prop29
280
     1
102
RTVSPost2010PropOp29
 70
     1
102
RTVSPost2010Prop30
280
     1
102
RTVSPost2010PropOp30
 70
     1
102
RTVSPost2010Prop31
280
     0
102
RTVSPost2010PropOp31
 70
     1
102
RTVSPost2010Prop32
280
     0
102
RTVSPost2010PropOp32
 70
     1
102
RTVSPost2010Prop33
280
     0
102
RTVSPost2010PropOp33
 70
     1
102
RTVSPost2010Prop34
280
     0
102
RTVSPost2010PropOp34
 70
     1
102
RTVSPost2010Prop35
280
     0
102
RTVSPost2010PropOp35
 70
     1
102
RTVSPost2010Prop36
280
     0
102
RTVSPost2010PropOp36
 70
     1
102
RTVSPost2010Prop37
 90
       50
102
RTVSPost2010PropOp37
 70
     1
102
RTVSPost2010Prop38
140
0.0
102
RTVSPost2010PropOp38
 70
     1
102
RTVSPost2010Prop39
140
1.0
102
RTVSPost2010PropOp39
 70
     1
102
RTVSPost2010Prop40
 90
        0
102
RTVSPost2010PropOp40
 70
     1
102
RTVSPost2010Prop41ColorIndex
 90
       18
102
RTVSPost2010Prop41ColorRGB
 90
        0
102
RTVSPost2010PropOp41
 70
     1
102
RTVSPost2010Prop42
 90
       50
102
RTVSPost2010PropOp42
 70
     1
102
RTVSPost2010Prop43
 90
        3
102
RTVSPost2010PropOp43
 70
     1
102
RTVSPost2010Prop44ColorIndex
 90
        5
102
RTVSPost2010Prop44ColorRGB
 90
      255
102
RTVSPost2010PropOp44
 70
     1
102
RTVSPost2010Prop45
280
     0
102
RTVSPost2010PropOp45
 70
     1
102
RTVSPost2010Prop46
 90
       50
102
RTVSPost2010PropOp46
 70
     1
102
RTVSPost2010Prop47
 90
       50
102
RTVSPost2010PropOp47
 70
     1
102
RTVSPost2010Prop48
 90
       50
102
RTVSPost2010PropOp48
 70
     1
102
RTVSPost2010Prop49
280
     0
102
RTVSPost2010PropOp49
 70
     1
102
RTVSPost2010Prop50
 90
       50
102
RTVSPost2010PropOp50
 70
     1
102
RTVSPost2010Prop51ColorIndex
 90
      256
102
RTVSPost2010Prop51ColorRGB
 90
-16777216
102
RTVSPost2010PropOp51
 70
     0
102
RTVSPost2010Prop52
140
1.0
102
RTVSPost2010PropOp52
 70
     0
102
RTVSPost2010Prop53
 90
        2
102
RTVSPost2010PropOp53
 70
     1
102
RTVSPost2010Prop54
  1
strokes_ogs.tif
102
RTVSPost2010PropOp54
 70
     1
102
RTVSPost2010Prop55
280
     0
102
RTVSPost2010PropOp55
 70
     1
102
RTVSPost2010Prop56
140
1.0
102
RTVSPost2010PropOp56
 70
     1
102
RTVSPost2010Prop57
140
1.0
102
RTVSPost2010PropOp57
 70
     1
102
RTVSPropertyOp0
 70
     1
102
RTVSPropertyOp1
 70
     1
102
RTVSPropertyOp2
 70
     1
102
RTVSPropertyOp3
 70
     1
102
RTVSPropertyOp4
 70
     1
102
RTVSPropertyOp5
 70
     1
102
RTVSPropertyOp6
 70
     1
102
RTVSPropertyOp7
 70
     1
102
RTVSPropertyOp8
 70
     1
102
RTVSPropertyOp9
 70
     1
102
RTVSPropertyOp10
 70
     1
102
RTVSPropertyOp11
 70
     1
102
RTVSPropertyOp12
 70
     1
102
RTVSPropertyOp13
 70
     1
102
RTVSPropertyOp14
 70
     1
102
RTVSPropertyOp15
 70
     1
102
RTVSPropertyOp16
 70
     1
102
RTVSPropertyOp17
 70
     1
102
RTVSPropertyOp18
 70
     1
102
RTVSPropertyOp19
 70
     1
102
RTVSPropertyOp20
 70
     1
102
RTVSPropertyOp21
 70
     1
102
RTVSPropertyOp22
 70
     1
102
RTVSPropertyOp23
 70
     1
102
RTVSPropertyOp24
 70
     1
102
RTVSPropertyOp25
 70
     1
102
RTVSPropertyOp26
 70
     1
102
RTVSPropertyOp27
 70
     1
102
RTVSPropertyOp28
 70
     1
102
RTVSPropertyOp29
 70
     1
102
RTVSPropertyOp30
 70
     1
102
RTVSPropertyOp31
 70
     1
102
RTVSPropertyOp32
 70
     1
102
RTVSPropertyOp33
 70
     1
102
RTVSPropertyOp34
 70
     1
102
RTVSPropertyOp35
 70
     1
102
RTVSPropertyOp36
 70
     1
102
RTVSPropertyOp37
 70
     1
102
RTVSPropertyOp38
 70
     1
102
RTVSPropertyOp39
 70
     1
102
RTVSPropertyOp40
 70
     1
102
RTVSPropertyOp41
 70
     1
102
RTVSPropertyOp42
 70
     1
102
RTVSPropertyOp43
 70
     1
102
RTVSPropertyOp44
 70
     1
102
RTVSPropertyOp45
 70
     1
102
RTVSPropertyOp46
 70
     1
102
RTVSPropertyOp47
 70
     1
102
RTVSPropertyOp48
 70
     1
102
RTVSPropertyOp49
 70
     1
102
RTVSPropertyOp50
 70
     1
102
RTVSPropertyOp51
 70
     0
102
RTVSPropertyOp52
 70
     0
102
RTVSPropertyOp53
 70
     1
102
RTVSPropertyOp54
 70
     1
102
RTVSPropertyOp55
 70
     1
102
RTVSPropertyOp56
 70
     1
102
RTVSPropertyOp57
 70
     1
102
RTVSPropertyOp58
 70
     1
102
RTVSPropertyOp59
 70
     1
102
RTVSPropertyOp60
 70
     1
102
RTVSPropertyOp61
 70
     1
102
RTVSPropertyOp62
 70
     1
  0
XRECORD
  5
70E
102
{ACAD_REACTORS
330
70D
102
}
330
70D
100
AcDbXrecord
280
     1
102
RTVSPost2010Prop28
280
     0
102
RTVSPost2010PropOp28
 70
     1
102
RTVSPost2010Prop29
280
     1
102
RTVSPost2010PropOp29
 70
     1
102
RTVSPost2010Prop30
280
     1
102
RTVSPost2010PropOp30
 70
     1
102
RTVSPost2010Prop31
280
     0
102
RTVSPost2010PropOp31
 70
     1
102
RTVSPost2010Prop32
280
     0
102
RTVSPost2010PropOp32
 70
     1
102
RTVSPost2010Prop33
280
     0
102
RTVSPost2010PropOp33
 70
     1
102
RTVSPost2010Prop34
280
     0
102
RTVSPost2010PropOp34
 70
     1
102
RTVSPost2010Prop35
280
     0
102
RTVSPost2010PropOp35
 70
     1
102
RTVSPost2010Prop36
280
     0
102
RTVSPost2010PropOp36
 70
     1
102
RTVSPost2010Prop37
 90
       50
102
RTVSPost2010PropOp37
 70
     1
102
RTVSPost2010Prop38
140
0.0
102
RTVSPost2010PropOp38
 70
     1
102
RTVSPost2010Prop39
140
1.0
102
RTVSPost2010PropOp39
 70
     1
102
RTVSPost2010Prop40
 90
        0
102
RTVSPost2010PropOp40
 70
     1
102
RTVSPost2010Prop41ColorIndex
 90
       18
102
RTVSPost2010Prop41ColorRGB
 90
        0
102
RTVSPost2010PropOp41
 70
     1
102
RTVSPost2010Prop42
 90
       50
102
RTVSPost2010PropOp42
 70
     1
102
RTVSPost2010Prop43
 90
        3
102
RTVSPost2010PropOp43
 70
     1
102
RTVSPost2010Prop44ColorIndex
 90
        5
102
RTVSPost2010Prop44ColorRGB
 90
      255
102
RTVSPost2010PropOp44
 70
     1
102
RTVSPost2010Prop45
280
     0
102
RTVSPost2010PropOp45
 70
     1
102
RTVSPost2010Prop46
 90
       50
102
RTVSPost2010PropOp46
 70
     1
102
RTVSPost2010Prop47
 90
       50
102
RTVSPost2010PropOp47
 70
     1
102
RTVSPost2010Prop48
 90
       50
102
RTVSPost2010PropOp48
 70
     1
102
RTVSPost2010Prop49
280
     0
102
RTVSPost2010PropOp49
 70
     1
102
RTVSPost2010Prop50
 90
       50
102
RTVSPost2010PropOp50
 70
     1
102
RTVSPost2010Prop51ColorIndex
 90
      256
102
RTVSPost2010Prop51ColorRGB
 90
-16777216
102
RTVSPost2010PropOp51
 70
     0
102
RTVSPost2010Prop52
140
1.0
102
RTVSPost2010PropOp52
 70
     0
102
RTVSPost2010Prop53
 90
        2
102
RTVSPost2010PropOp53
 70
     1
102
RTVSPost2010Prop54
  1
strokes_ogs.tif
102
RTVSPost2010PropOp54
 70
     1
102
RTVSPost2010Prop55
280
     0
102
RTVSPost2010PropOp55
 70
     1
102
RTVSPost2010Prop56
140
1.0
102
RTVSPost2010PropOp56
 70
     1
102
RTVSPost2010Prop57
140
1.0
102
RTVSPost2010PropOp57
 70
     1
102
RTVSPropertyOp0
 70
     1
102
RTVSPropertyOp1
 70
     1
102
RTVSPropertyOp2
 70
     1
102
RTVSPropertyOp3
 70
     1
102
RTVSPropertyOp4
 70
     1
102
RTVSPropertyOp5
 70
     1
102
RTVSPropertyOp6
 70
     1
102
RTVSPropertyOp7
 70
     1
102
RTVSPropertyOp8
 70
     1
102
RTVSPropertyOp9
 70
     1
102
RTVSPropertyOp10
 70
     1
102
RTVSPropertyOp11
 70
     1
102
RTVSPropertyOp12
 70
     1
102
RTVSPropertyOp13
 70
     1
102
RTVSPropertyOp14
 70
     1
102
RTVSPropertyOp15
 70
     1
102
RTVSPropertyOp16
 70
     1
102
RTVSPropertyOp17
 70
     1
102
RTVSPropertyOp18
 70
     1
102
RTVSPropertyOp19
 70
     1
102
RTVSPropertyOp20
 70
     1
102
RTVSPropertyOp21
 70
     1
102
RTVSPropertyOp22
 70
     1
102
RTVSPropertyOp23
 70
     1
102
RTVSPropertyOp24
 70
     1
102
RTVSPropertyOp25
 70
     1
102
RTVSPropertyOp26
 70
     1
102
RTVSPropertyOp27
 70
     1
102
RTVSPropertyOp28
 70
     1
102
RTVSPropertyOp29
 70
     1
102
RTVSPropertyOp30
 70
     1
102
RTVSPropertyOp31
 70
     1
102
RTVSPropertyOp32
 70
     1
102
RTVSPropertyOp33
 70
     1
102
RTVSPropertyOp34
 70
     1
102
RTVSPropertyOp35
 70
     1
102
RTVSPropertyOp36
 70
     1
102
RTVSPropertyOp37
 70
     1
102
RTVSPropertyOp38
 70
     1
102
RTVSPropertyOp39
 70
     1
102
RTVSPropertyOp40
 70
     1
102
RTVSPropertyOp41
 70
     1
102
RTVSPropertyOp42
 70
     1
102
RTVSPropertyOp43
 70
     1
102
RTVSPropertyOp44
 70
     1
102
RTVSPropertyOp45
 70
     1
102
RTVSPropertyOp46
 70
     1
102
RTVSPropertyOp47
 70
     1
102
RTVSPropertyOp48
 70
     1
102
RTVSPropertyOp49
 70
     1
102
RTVSPropertyOp50
 70
     1
102
RTVSPropertyOp51
 70
     0
102
RTVSPropertyOp52
 70
     0
102
RTVSPropertyOp53
 70
     1
102
RTVSPropertyOp54
 70
     1
102
RTVSPropertyOp55
 70
     1
102
RTVSPropertyOp56
 70
     1
102
RTVSPropertyOp57
 70
     1
102
RTVSPropertyOp58
 70
     1
102
RTVSPropertyOp59
 70
     1
102
RTVSPropertyOp60
 70
     1
102
RTVSPropertyOp61
 70
     1
102
RTVSPropertyOp62
 70
     1
  0
XRECORD
  5
700
102
{ACAD_REACTORS
330
6FF
102
}
330
6FF
100
AcDbXrecord
280
     1
102
RTVSPost2010Prop28
280
     0
102
RTVSPost2010PropOp28
 70
     1
102
RTVSPost2010Prop29
280
     1
102
RTVSPost2010PropOp29
 70
     1
102
RTVSPost2010Prop30
280
     1
102
RTVSPost2010PropOp30
 70
     1
102
RTVSPost2010Prop31
280
     0
102
RTVSPost2010PropOp31
 70
     1
102
RTVSPost2010Prop32
280
     0
102
RTVSPost2010PropOp32
 70
     1
102
RTVSPost2010Prop33
280
     0
102
RTVSPost2010PropOp33
 70
     1
102
RTVSPost2010Prop34
280
     0
102
RTVSPost2010PropOp34
 70
     1
102
RTVSPost2010Prop35
280
     0
102
RTVSPost2010PropOp35
 70
     1
102
RTVSPost2010Prop36
280
     0
102
RTVSPost2010PropOp36
 70
     1
102
RTVSPost2010Prop37
 90
       50
102
RTVSPost2010PropOp37
 70
     1
102
RTVSPost2010Prop38
140
0.0
102
RTVSPost2010PropOp38
 70
     1
102
RTVSPost2010Prop39
140
1.0
102
RTVSPost2010PropOp39
 70
     1
102
RTVSPost2010Prop40
 90
        0
102
RTVSPost2010PropOp40
 70
     1
102
RTVSPost2010Prop41ColorIndex
 90
       18
102
RTVSPost2010Prop41ColorRGB
 90
        0
102
RTVSPost2010PropOp41
 70
     1
102
RTVSPost2010Prop42
 90
       50
102
RTVSPost2010PropOp42
 70
     1
102
RTVSPost2010Prop43
 90
        3
102
RTVSPost2010PropOp43
 70
     1
102
RTVSPost2010Prop44ColorIndex
 90
        5
102
RTVSPost2010Prop44ColorRGB
 90
      255
102
RTVSPost2010PropOp44
 70
     1
102
RTVSPost2010Prop45
280
     0
102
RTVSPost2010PropOp45
 70
     1
102
RTVSPost2010Prop46
 90
       50
102
RTVSPost2010PropOp46
 70
     1
102
RTVSPost2010Prop47
 90
       50
102
RTVSPost2010PropOp47
 70
     1
102
RTVSPost2010Prop48
 90
       50
102
RTVSPost2010PropOp48
 70
     1
102
RTVSPost2010Prop49
280
     0
102
RTVSPost2010PropOp49
 70
     1
102
RTVSPost2010Prop50
 90
       50
102
RTVSPost2010PropOp50
 70
     1
102
RTVSPost2010Prop51ColorIndex
 90
      256
102
RTVSPost2010Prop51ColorRGB
 90
-16777216
102
RTVSPost2010PropOp51
 70
     0
102
RTVSPost2010Prop52
140
1.0
102
RTVSPost2010PropOp52
 70
     0
102
RTVSPost2010Prop53
 90
        2
102
RTVSPost2010PropOp53
 70
     1
102
RTVSPost2010Prop54
  1
strokes_ogs.tif
102
RTVSPost2010PropOp54
 70
     1
102
RTVSPost2010Prop55
280
     0
102
RTVSPost2010PropOp55
 70
     1
102
RTVSPost2010Prop56
140
1.0
102
RTVSPost2010PropOp56
 70
     1
102
RTVSPost2010Prop57
140
1.0
102
RTVSPost2010PropOp57
 70
     1
102
RTVSPropertyOp0
 70
     1
102
RTVSPropertyOp1
 70
     1
102
RTVSPropertyOp2
 70
     1
102
RTVSPropertyOp3
 70
     1
102
RTVSPropertyOp4
 70
     1
102
RTVSPropertyOp5
 70
     1
102
RTVSPropertyOp6
 70
     1
102
RTVSPropertyOp7
 70
     1
102
RTVSPropertyOp8
 70
     1
102
RTVSPropertyOp9
 70
     1
102
RTVSPropertyOp10
 70
     1
102
RTVSPropertyOp11
 70
     1
102
RTVSPropertyOp12
 70
     1
102
RTVSPropertyOp13
 70
     1
102
RTVSPropertyOp14
 70
     1
102
RTVSPropertyOp15
 70
     1
102
RTVSPropertyOp16
 70
     1
102
RTVSPropertyOp17
 70
     1
102
RTVSPropertyOp18
 70
     1
102
RTVSPropertyOp19
 70
     1
102
RTVSPropertyOp20
 70
     1
102
RTVSPropertyOp21
 70
     1
102
RTVSPropertyOp22
 70
     1
102
RTVSPropertyOp23
 70
     1
102
RTVSPropertyOp24
 70
     1
102
RTVSPropertyOp25
 70
     1
102
RTVSPropertyOp26
 70
     1
102
RTVSPropertyOp27
 70
     1
102
RTVSPropertyOp28
 70
     1
102
RTVSPropertyOp29
 70
     1
102
RTVSPropertyOp30
 70
     1
102
RTVSPropertyOp31
 70
     1
102
RTVSPropertyOp32
 70
     1
102
RTVSPropertyOp33
 70
     1
102
RTVSPropertyOp34
 70
     1
102
RTVSPropertyOp35
 70
     1
102
RTVSPropertyOp36
 70
     1
102
RTVSPropertyOp37
 70
     1
102
RTVSPropertyOp38
 70
     1
102
RTVSPropertyOp39
 70
     1
102
RTVSPropertyOp40
 70
     1
102
RTVSPropertyOp41
 70
     1
102
RTVSPropertyOp42
 70
     1
102
RTVSPropertyOp43
 70
     1
102
RTVSPropertyOp44
 70
     1
102
RTVSPropertyOp45
 70
     1
102
RTVSPropertyOp46
 70
     1
102
RTVSPropertyOp47
 70
     1
102
RTVSPropertyOp48
 70
     1
102
RTVSPropertyOp49
 70
     1
102
RTVSPropertyOp50
 70
     1
102
RTVSPropertyOp51
 70
     0
102
RTVSPropertyOp52
 70
     0
102
RTVSPropertyOp53
 70
     1
102
RTVSPropertyOp54
 70
     1
102
RTVSPropertyOp55
 70
     1
102
RTVSPropertyOp56
 70
     1
102
RTVSPropertyOp57
 70
     1
102
RTVSPropertyOp58
 70
     1
102
RTVSPropertyOp59
 70
     1
102
RTVSPropertyOp60
 70
     1
102
RTVSPropertyOp61
 70
     1
102
RTVSPropertyOp62
 70
     1
  0
XRECORD
  5
704
102
{ACAD_REACTORS
330
703
102
}
330
703
100
AcDbXrecord
280
     1
102
RTVSPost2010Prop28
280
     0
102
RTVSPost2010PropOp28
 70
     1
102
RTVSPost2010Prop29
280
     1
102
RTVSPost2010PropOp29
 70
     1
102
RTVSPost2010Prop30
280
     1
102
RTVSPost2010PropOp30
 70
     1
102
RTVSPost2010Prop31
280
     0
102
RTVSPost2010PropOp31
 70
     1
102
RTVSPost2010Prop32
280
     0
102
RTVSPost2010PropOp32
 70
     1
102
RTVSPost2010Prop33
280
     0
102
RTVSPost2010PropOp33
 70
     1
102
RTVSPost2010Prop34
280
     0
102
RTVSPost2010PropOp34
 70
     1
102
RTVSPost2010Prop35
280
     0
102
RTVSPost2010PropOp35
 70
     1
102
RTVSPost2010Prop36
280
     0
102
RTVSPost2010PropOp36
 70
     1
102
RTVSPost2010Prop37
 90
       50
102
RTVSPost2010PropOp37
 70
     1
102
RTVSPost2010Prop38
140
0.0
102
RTVSPost2010PropOp38
 70
     1
102
RTVSPost2010Prop39
140
1.0
102
RTVSPost2010PropOp39
 70
     1
102
RTVSPost2010Prop40
 90
        0
102
RTVSPost2010PropOp40
 70
     1
102
RTVSPost2010Prop41ColorIndex
 90
       18
102
RTVSPost2010Prop41ColorRGB
 90
        0
102
RTVSPost2010PropOp41
 70
     1
102
RTVSPost2010Prop42
 90
       50
102
RTVSPost2010PropOp42
 70
     1
102
RTVSPost2010Prop43
 90
        3
102
RTVSPost2010PropOp43
 70
     1
102
RTVSPost2010Prop44ColorIndex
 90
        5
102
RTVSPost2010Prop44ColorRGB
 90
      255
102
RTVSPost2010PropOp44
 70
     1
102
RTVSPost2010Prop45
280
     0
102
RTVSPost2010PropOp45
 70
     1
102
RTVSPost2010Prop46
 90
       50
102
RTVSPost2010PropOp46
 70
     1
102
RTVSPost2010Prop47
 90
       50
102
RTVSPost2010PropOp47
 70
     1
102
RTVSPost2010Prop48
 90
       50
102
RTVSPost2010PropOp48
 70
     1
102
RTVSPost2010Prop49
280
     0
102
RTVSPost2010PropOp49
 70
     1
102
RTVSPost2010Prop50
 90
       50
102
RTVSPost2010PropOp50
 70
     1
102
RTVSPost2010Prop51ColorIndex
 90
      256
102
RTVSPost2010Prop51ColorRGB
 90
-16777216
102
RTVSPost2010PropOp51
 70
     0
102
RTVSPost2010Prop52
140
1.0
102
RTVSPost2010PropOp52
 70
     0
102
RTVSPost2010Prop53
 90
        2
102
RTVSPost2010PropOp53
 70
     1
102
RTVSPost2010Prop54
  1
strokes_ogs.tif
102
RTVSPost2010PropOp54
 70
     1
102
RTVSPost2010Prop55
280
     0
102
RTVSPost2010PropOp55
 70
     1
102
RTVSPost2010Prop56
140
1.0
102
RTVSPost2010PropOp56
 70
     1
102
RTVSPost2010Prop57
140
1.0
102
RTVSPost2010PropOp57
 70
     1
102
RTVSPropertyOp0
 70
     1
102
RTVSPropertyOp1
 70
     1
102
RTVSPropertyOp2
 70
     1
102
RTVSPropertyOp3
 70
     1
102
RTVSPropertyOp4
 70
     1
102
RTVSPropertyOp5
 70
     1
102
RTVSPropertyOp6
 70
     1
102
RTVSPropertyOp7
 70
     1
102
RTVSPropertyOp8
 70
     1
102
RTVSPropertyOp9
 70
     1
102
RTVSPropertyOp10
 70
     1
102
RTVSPropertyOp11
 70
     1
102
RTVSPropertyOp12
 70
     1
102
RTVSPropertyOp13
 70
     1
102
RTVSPropertyOp14
 70
     1
102
RTVSPropertyOp15
 70
     1
102
RTVSPropertyOp16
 70
     1
102
RTVSPropertyOp17
 70
     1
102
RTVSPropertyOp18
 70
     1
102
RTVSPropertyOp19
 70
     1
102
RTVSPropertyOp20
 70
     1
102
RTVSPropertyOp21
 70
     1
102
RTVSPropertyOp22
 70
     1
102
RTVSPropertyOp23
 70
     1
102
RTVSPropertyOp24
 70
     1
102
RTVSPropertyOp25
 70
     1
102
RTVSPropertyOp26
 70
     1
102
RTVSPropertyOp27
 70
     1
102
RTVSPropertyOp28
 70
     1
102
RTVSPropertyOp29
 70
     1
102
RTVSPropertyOp30
 70
     1
102
RTVSPropertyOp31
 70
     1
102
RTVSPropertyOp32
 70
     1
102
RTVSPropertyOp33
 70
     1
102
RTVSPropertyOp34
 70
     1
102
RTVSPropertyOp35
 70
     1
102
RTVSPropertyOp36
 70
     1
102
RTVSPropertyOp37
 70
     1
102
RTVSPropertyOp38
 70
     1
102
RTVSPropertyOp39
 70
     1
102
RTVSPropertyOp40
 70
     1
102
RTVSPropertyOp41
 70
     1
102
RTVSPropertyOp42
 70
     1
102
RTVSPropertyOp43
 70
     1
102
RTVSPropertyOp44
 70
     1
102
RTVSPropertyOp45
 70
     1
102
RTVSPropertyOp46
 70
     1
102
RTVSPropertyOp47
 70
     1
102
RTVSPropertyOp48
 70
     1
102
RTVSPropertyOp49
 70
     1
102
RTVSPropertyOp50
 70
     1
102
RTVSPropertyOp51
 70
     0
102
RTVSPropertyOp52
 70
     0
102
RTVSPropertyOp53
 70
     1
102
RTVSPropertyOp54
 70
     1
102
RTVSPropertyOp55
 70
     1
102
RTVSPropertyOp56
 70
     1
102
RTVSPropertyOp57
 70
     1
102
RTVSPropertyOp58
 70
     1
102
RTVSPropertyOp59
 70
     1
102
RTVSPropertyOp60
 70
     1
102
RTVSPropertyOp61
 70
     1
102
RTVSPropertyOp62
 70
     1
  0
XRECORD
  5
71E
102
{ACAD_REACTORS
330
71D
102
}
330
71D
100
AcDbXrecord
280
     1
102
RTVSPost2010Prop28
280
     0
102
RTVSPost2010PropOp28
 70
     1
102
RTVSPost2010Prop29
280
     1
102
RTVSPost2010PropOp29
 70
     1
102
RTVSPost2010Prop30
280
     1
102
RTVSPost2010PropOp30
 70
     1
102
RTVSPost2010Prop31
280
     0
102
RTVSPost2010PropOp31
 70
     1
102
RTVSPost2010Prop32
280
     0
102
RTVSPost2010PropOp32
 70
     1
102
RTVSPost2010Prop33
280
     0
102
RTVSPost2010PropOp33
 70
     1
102
RTVSPost2010Prop34
280
     0
102
RTVSPost2010PropOp34
 70
     1
102
RTVSPost2010Prop35
280
     0
102
RTVSPost2010PropOp35
 70
     1
102
RTVSPost2010Prop36
280
     0
102
RTVSPost2010PropOp36
 70
     1
102
RTVSPost2010Prop37
 90
       50
102
RTVSPost2010PropOp37
 70
     0
102
RTVSPost2010Prop38
140
0.0
102
RTVSPost2010PropOp38
 70
     0
102
RTVSPost2010Prop39
140
1.0
102
RTVSPost2010PropOp39
 70
     0
102
RTVSPost2010Prop40
 90
        0
102
RTVSPost2010PropOp40
 70
     0
102
RTVSPost2010Prop41ColorIndex
 90
       18
102
RTVSPost2010Prop41ColorRGB
 90
        0
102
RTVSPost2010PropOp41
 70
     0
102
RTVSPost2010Prop42
 90
       50
102
RTVSPost2010PropOp42
 70
     0
102
RTVSPost2010Prop43
 90
        3
102
RTVSPost2010PropOp43
 70
     0
102
RTVSPost2010Prop44ColorIndex
 90
        5
102
RTVSPost2010Prop44ColorRGB
 90
      255
102
RTVSPost2010PropOp44
 70
     0
102
RTVSPost2010Prop45
280
     0
102
RTVSPost2010PropOp45
 70
     1
102
RTVSPost2010Prop46
 90
       50
102
RTVSPost2010PropOp46
 70
     0
102
RTVSPost2010Prop47
 90
       50
102
RTVSPost2010PropOp47
 70
     0
102
RTVSPost2010Prop48
 90
       50
102
RTVSPost2010PropOp48
 70
     0
102
RTVSPost2010Prop49
280
     0
102
RTVSPost2010PropOp49
 70
     1
102
RTVSPost2010Prop50
 90
       50
102
RTVSPost2010PropOp50
 70
     0
102
RTVSPost2010Prop51ColorIndex
 90
      256
102
RTVSPost2010Prop51ColorRGB
 90
-16777216
102
RTVSPost2010PropOp51
 70
     0
102
RTVSPost2010Prop52
140
1.0
102
RTVSPost2010PropOp52
 70
     0
102
RTVSPost2010Prop53
 90
        2
102
RTVSPost2010PropOp53
 70
     0
102
RTVSPost2010Prop54
  1
strokes_ogs.tif
102
RTVSPost2010PropOp54
 70
     0
102
RTVSPost2010Prop55
280
     0
102
RTVSPost2010PropOp55
 70
     1
102
RTVSPost2010Prop56
140
1.0
102
RTVSPost2010PropOp56
 70
     0
102
RTVSPost2010Prop57
140
1.0
102
RTVSPost2010PropOp57
 70
     0
102
RTVSPropertyOp0
 70
     0
102
RTVSPropertyOp1
 70
     0
102
RTVSPropertyOp2
 70
     0
102
RTVSPropertyOp3
 70
     0
102
RTVSPropertyOp4
 70
     0
102
RTVSPropertyOp5
 70
     0
102
RTVSPropertyOp6
 70
     0
102
RTVSPropertyOp7
 70
     0
102
RTVSPropertyOp8
 70
     0
102
RTVSPropertyOp9
 70
     0
102
RTVSPropertyOp10
 70
     0
102
RTVSPropertyOp11
 70
     0
102
RTVSPropertyOp12
 70
     0
102
RTVSPropertyOp13
 70
     0
102
RTVSPropertyOp14
 70
     2
102
RTVSPropertyOp15
 70
     0
102
RTVSPropertyOp16
 70
     0
102
RTVSPropertyOp17
 70
     0
102
RTVSPropertyOp18
 70
     0
102
RTVSPropertyOp19
 70
     0
102
RTVSPropertyOp20
 70
     0
102
RTVSPropertyOp21
 70
     0
102
RTVSPropertyOp22
 70
     0
102
RTVSPropertyOp23
 70
     0
102
RTVSPropertyOp24
 70
     0
102
RTVSPropertyOp25
 70
     0
102
RTVSPropertyOp26
 70
     0
102
RTVSPropertyOp27
 70
     0
102
RTVSPropertyOp28
 70
     1
102
RTVSPropertyOp29
 70
     1
102
RTVSPropertyOp30
 70
     1
102
RTVSPropertyOp31
 70
     1
102
RTVSPropertyOp32
 70
     1
102
RTVSPropertyOp33
 70
     1
102
RTVSPropertyOp34
 70
     1
102
RTVSPropertyOp35
 70
     1
102
RTVSPropertyOp36
 70
     1
102
RTVSPropertyOp37
 70
     0
102
RTVSPropertyOp38
 70
     0
102
RTVSPropertyOp39
 70
     0
102
RTVSPropertyOp40
 70
     0
102
RTVSPropertyOp41
 70
     0
102
RTVSPropertyOp42
 70
     0
102
RTVSPropertyOp43
 70
     0
102
RTVSPropertyOp44
 70
     0
102
RTVSPropertyOp45
 70
     1
102
RTVSPropertyOp46
 70
     0
102
RTVSPropertyOp47
 70
     0
102
RTVSPropertyOp48
 70
     0
102
RTVSPropertyOp49
 70
     1
102
RTVSPropertyOp50
 70
     0
102
RTVSPropertyOp51
 70
     0
102
RTVSPropertyOp52
 70
     0
102
RTVSPropertyOp53
 70
     0
102
RTVSPropertyOp54
 70
     0
102
RTVSPropertyOp55
 70
     1
102
RTVSPropertyOp56
 70
     0
102
RTVSPropertyOp57
 70
     0
102
RTVSPropertyOp58
 70
     0
102
RTVSPropertyOp59
 70
     0
102
RTVSPropertyOp60
 70
     0
102
RTVSPropertyOp61
 70
     0
102
RTVSPropertyOp62
 70
     0
  0
XRECORD
  5
70C
102
{ACAD_REACTORS
330
70B
102
}
330
70B
100
AcDbXrecord
280
     1
102
RTVSPost2010Prop28
280
     0
102
RTVSPost2010PropOp28
 70
     1
102
RTVSPost2010Prop29
280
     1
102
RTVSPost2010PropOp29
 70
     1
102
RTVSPost2010Prop30
280
     1
102
RTVSPost2010PropOp30
 70
     1
102
RTVSPost2010Prop31
280
     0
102
RTVSPost2010PropOp31
 70
     1
102
RTVSPost2010Prop32
280
     0
102
RTVSPost2010PropOp32
 70
     1
102
RTVSPost2010Prop33
280
     0
102
RTVSPost2010PropOp33
 70
     1
102
RTVSPost2010Prop34
280
     0
102
RTVSPost2010PropOp34
 70
     1
102
RTVSPost2010Prop35
280
     0
102
RTVSPost2010PropOp35
 70
     1
102
RTVSPost2010Prop36
280
     0
102
RTVSPost2010PropOp36
 70
     1
102
RTVSPost2010Prop37
 90
       50
102
RTVSPost2010PropOp37
 70
     1
102
RTVSPost2010Prop38
140
0.0
102
RTVSPost2010PropOp38
 70
     1
102
RTVSPost2010Prop39
140
1.0
102
RTVSPost2010PropOp39
 70
     1
102
RTVSPost2010Prop40
 90
        0
102
RTVSPost2010PropOp40
 70
     1
102
RTVSPost2010Prop41ColorIndex
 90
       18
102
RTVSPost2010Prop41ColorRGB
 90
        0
102
RTVSPost2010PropOp41
 70
     1
102
RTVSPost2010Prop42
 90
       50
102
RTVSPost2010PropOp42
 70
     1
102
RTVSPost2010Prop43
 90
        3
102
RTVSPost2010PropOp43
 70
     1
102
RTVSPost2010Prop44ColorIndex
 90
        5
102
RTVSPost2010Prop44ColorRGB
 90
      255
102
RTVSPost2010PropOp44
 70
     1
102
RTVSPost2010Prop45
280
     0
102
RTVSPost2010PropOp45
 70
     1
102
RTVSPost2010Prop46
 90
       50
102
RTVSPost2010PropOp46
 70
     1
102
RTVSPost2010Prop47
 90
       50
102
RTVSPost2010PropOp47
 70
     1
102
RTVSPost2010Prop48
 90
       50
102
RTVSPost2010PropOp48
 70
     1
102
RTVSPost2010Prop49
280
     0
102
RTVSPost2010PropOp49
 70
     1
102
RTVSPost2010Prop50
 90
       50
102
RTVSPost2010PropOp50
 70
     1
102
RTVSPost2010Prop51ColorIndex
 90
      256
102
RTVSPost2010Prop51ColorRGB
 90
-16777216
102
RTVSPost2010PropOp51
 70
     0
102
RTVSPost2010Prop52
140
1.0
102
RTVSPost2010PropOp52
 70
     0
102
RTVSPost2010Prop53
 90
        2
102
RTVSPost2010PropOp53
 70
     1
102
RTVSPost2010Prop54
  1
strokes_ogs.tif
102
RTVSPost2010PropOp54
 70
     1
102
RTVSPost2010Prop55
280
     0
102
RTVSPost2010PropOp55
 70
     1
102
RTVSPost2010Prop56
140
1.0
102
RTVSPost2010PropOp56
 70
     1
102
RTVSPost2010Prop57
140
1.0
102
RTVSPost2010PropOp57
 70
     1
102
RTVSPropertyOp0
 70
     1
102
RTVSPropertyOp1
 70
     1
102
RTVSPropertyOp2
 70
     1
102
RTVSPropertyOp3
 70
     1
102
RTVSPropertyOp4
 70
     1
102
RTVSPropertyOp5
 70
     1
102
RTVSPropertyOp6
 70
     1
102
RTVSPropertyOp7
 70
     1
102
RTVSPropertyOp8
 70
     1
102
RTVSPropertyOp9
 70
     1
102
RTVSPropertyOp10
 70
     1
102
RTVSPropertyOp11
 70
     1
102
RTVSPropertyOp12
 70
     1
102
RTVSPropertyOp13
 70
     1
102
RTVSPropertyOp14
 70
     1
102
RTVSPropertyOp15
 70
     1
102
RTVSPropertyOp16
 70
     1
102
RTVSPropertyOp17
 70
     1
102
RTVSPropertyOp18
 70
     1
102
RTVSPropertyOp19
 70
     1
102
RTVSPropertyOp20
 70
     1
102
RTVSPropertyOp21
 70
     1
102
RTVSPropertyOp22
 70
     1
102
RTVSPropertyOp23
 70
     1
102
RTVSPropertyOp24
 70
     1
102
RTVSPropertyOp25
 70
     1
102
RTVSPropertyOp26
 70
     1
102
RTVSPropertyOp27
 70
     1
102
RTVSPropertyOp28
 70
     1
102
RTVSPropertyOp29
 70
     1
102
RTVSPropertyOp30
 70
     1
102
RTVSPropertyOp31
 70
     1
102
RTVSPropertyOp32
 70
     1
102
RTVSPropertyOp33
 70
     1
102
RTVSPropertyOp34
 70
     1
102
RTVSPropertyOp35
 70
     1
102
RTVSPropertyOp36
 70
     1
102
RTVSPropertyOp37
 70
     1
102
RTVSPropertyOp38
 70
     1
102
RTVSPropertyOp39
 70
     1
102
RTVSPropertyOp40
 70
     1
102
RTVSPropertyOp41
 70
     1
102
RTVSPropertyOp42
 70
     1
102
RTVSPropertyOp43
 70
     1
102
RTVSPropertyOp44
 70
     1
102
RTVSPropertyOp45
 70
     1
102
RTVSPropertyOp46
 70
     1
102
RTVSPropertyOp47
 70
     1
102
RTVSPropertyOp48
 70
     1
102
RTVSPropertyOp49
 70
     1
102
RTVSPropertyOp50
 70
     1
102
RTVSPropertyOp51
 70
     0
102
RTVSPropertyOp52
 70
     0
102
RTVSPropertyOp53
 70
     1
102
RTVSPropertyOp54
 70
     1
102
RTVSPropertyOp55
 70
     1
102
RTVSPropertyOp56
 70
     1
102
RTVSPropertyOp57
 70
     1
102
RTVSPropertyOp58
 70
     1
102
RTVSPropertyOp59
 70
     1
102
RTVSPropertyOp60
 70
     1
102
RTVSPropertyOp61
 70
     1
102
RTVSPropertyOp62
 70
     1
  0
XRECORD
  5
6F0
102
{ACAD_REACTORS
330
6EF
102
}
330
6EF
100
AcDbXrecord
280
     1
102
RTVSPost2010Prop28
280
     0
102
RTVSPost2010PropOp28
 70
     1
102
RTVSPost2010Prop29
280
     1
102
RTVSPost2010PropOp29
 70
     1
102
RTVSPost2010Prop30
280
     1
102
RTVSPost2010PropOp30
 70
     1
102
RTVSPost2010Prop31
280
     0
102
RTVSPost2010PropOp31
 70
     1
102
RTVSPost2010Prop32
280
     0
102
RTVSPost2010PropOp32
 70
     1
102
RTVSPost2010Prop33
280
     0
102
RTVSPost2010PropOp33
 70
     1
102
RTVSPost2010Prop34
280
     0
102
RTVSPost2010PropOp34
 70
     1
102
RTVSPost2010Prop35
280
     0
102
RTVSPost2010PropOp35
 70
     1
102
RTVSPost2010Prop36
280
     0
102
RTVSPost2010PropOp36
 70
     1
102
RTVSPost2010Prop37
 90
       50
102
RTVSPost2010PropOp37
 70
     1
102
RTVSPost2010Prop38
140
0.0
102
RTVSPost2010PropOp38
 70
     1
102
RTVSPost2010Prop39
140
1.0
102
RTVSPost2010PropOp39
 70
     1
102
RTVSPost2010Prop40
 90
        0
102
RTVSPost2010PropOp40
 70
     1
102
RTVSPost2010Prop41ColorIndex
 90
       18
102
RTVSPost2010Prop41ColorRGB
 90
        0
102
RTVSPost2010PropOp41
 70
     1
102
RTVSPost2010Prop42
 90
       50
102
RTVSPost2010PropOp42
 70
     1
102
RTVSPost2010Prop43
 90
        3
102
RTVSPost2010PropOp43
 70
     1
102
RTVSPost2010Prop44ColorIndex
 90
        5
102
RTVSPost2010Prop44ColorRGB
 90
      255
102
RTVSPost2010PropOp44
 70
     1
102
RTVSPost2010Prop45
280
     0
102
RTVSPost2010PropOp45
 70
     1
102
RTVSPost2010Prop46
 90
       50
102
RTVSPost2010PropOp46
 70
     1
102
RTVSPost2010Prop47
 90
       50
102
RTVSPost2010PropOp47
 70
     1
102
RTVSPost2010Prop48
 90
       50
102
RTVSPost2010PropOp48
 70
     1
102
RTVSPost2010Prop49
280
     0
102
RTVSPost2010PropOp49
 70
     1
102
RTVSPost2010Prop50
 90
       50
102
RTVSPost2010PropOp50
 70
     1
102
RTVSPost2010Prop51ColorIndex
 90
      256
102
RTVSPost2010Prop51ColorRGB
 90
-16777216
102
RTVSPost2010PropOp51
 70
     0
102
RTVSPost2010Prop52
140
1.0
102
RTVSPost2010PropOp52
 70
     0
102
RTVSPost2010Prop53
 90
        2
102
RTVSPost2010PropOp53
 70
     1
102
RTVSPost2010Prop54
  1
strokes_ogs.tif
102
RTVSPost2010PropOp54
 70
     1
102
RTVSPost2010Prop55
280
     0
102
RTVSPost2010PropOp55
 70
     1
102
RTVSPost2010Prop56
140
1.0
102
RTVSPost2010PropOp56
 70
     1
102
RTVSPost2010Prop57
140
1.0
102
RTVSPost2010PropOp57
 70
     1
102
RTVSPropertyOp0
 70
     1
102
RTVSPropertyOp1
 70
     1
102
RTVSPropertyOp2
 70
     1
102
RTVSPropertyOp3
 70
     1
102
RTVSPropertyOp4
 70
     1
102
RTVSPropertyOp5
 70
     1
102
RTVSPropertyOp6
 70
     1
102
RTVSPropertyOp7
 70
     1
102
RTVSPropertyOp8
 70
     1
102
RTVSPropertyOp9
 70
     1
102
RTVSPropertyOp10
 70
     1
102
RTVSPropertyOp11
 70
     1
102
RTVSPropertyOp12
 70
     1
102
RTVSPropertyOp13
 70
     1
102
RTVSPropertyOp14
 70
     1
102
RTVSPropertyOp15
 70
     1
102
RTVSPropertyOp16
 70
     1
102
RTVSPropertyOp17
 70
     1
102
RTVSPropertyOp18
 70
     1
102
RTVSPropertyOp19
 70
     1
102
RTVSPropertyOp20
 70
     1
102
RTVSPropertyOp21
 70
     1
102
RTVSPropertyOp22
 70
     1
102
RTVSPropertyOp23
 70
     1
102
RTVSPropertyOp24
 70
     1
102
RTVSPropertyOp25
 70
     1
102
RTVSPropertyOp26
 70
     1
102
RTVSPropertyOp27
 70
     1
102
RTVSPropertyOp28
 70
     1
102
RTVSPropertyOp29
 70
     1
102
RTVSPropertyOp30
 70
     1
102
RTVSPropertyOp31
 70
     1
102
RTVSPropertyOp32
 70
     1
102
RTVSPropertyOp33
 70
     1
102
RTVSPropertyOp34
 70
     1
102
RTVSPropertyOp35
 70
     1
102
RTVSPropertyOp36
 70
     1
102
RTVSPropertyOp37
 70
     1
102
RTVSPropertyOp38
 70
     1
102
RTVSPropertyOp39
 70
     1
102
RTVSPropertyOp40
 70
     1
102
RTVSPropertyOp41
 70
     1
102
RTVSPropertyOp42
 70
     1
102
RTVSPropertyOp43
 70
     1
102
RTVSPropertyOp44
 70
     1
102
RTVSPropertyOp45
 70
     1
102
RTVSPropertyOp46
 70
     1
102
RTVSPropertyOp47
 70
     1
102
RTVSPropertyOp48
 70
     1
102
RTVSPropertyOp49
 70
     1
102
RTVSPropertyOp50
 70
     1
102
RTVSPropertyOp51
 70
     0
102
RTVSPropertyOp52
 70
     0
102
RTVSPropertyOp53
 70
     1
102
RTVSPropertyOp54
 70
     1
102
RTVSPropertyOp55
 70
     1
102
RTVSPropertyOp56
 70
     1
102
RTVSPropertyOp57
 70
     1
102
RTVSPropertyOp58
 70
     1
102
RTVSPropertyOp59
 70
     1
102
RTVSPropertyOp60
 70
     1
102
RTVSPropertyOp61
 70
     1
102
RTVSPropertyOp62
 70
     1
  0
XRECORD
  5
6F2
102
{ACAD_REACTORS
330
6F1
102
}
330
6F1
100
AcDbXrecord
280
     1
102
RTVSPost2010Prop28
280
     0
102
RTVSPost2010PropOp28
 70
     1
102
RTVSPost2010Prop29
280
     1
102
RTVSPost2010PropOp29
 70
     1
102
RTVSPost2010Prop30
280
     1
102
RTVSPost2010PropOp30
 70
     1
102
RTVSPost2010Prop31
280
     0
102
RTVSPost2010PropOp31
 70
     1
102
RTVSPost2010Prop32
280
     0
102
RTVSPost2010PropOp32
 70
     1
102
RTVSPost2010Prop33
280
     0
102
RTVSPost2010PropOp33
 70
     1
102
RTVSPost2010Prop34
280
     0
102
RTVSPost2010PropOp34
 70
     1
102
RTVSPost2010Prop35
280
     0
102
RTVSPost2010PropOp35
 70
     1
102
RTVSPost2010Prop36
280
     0
102
RTVSPost2010PropOp36
 70
     1
102
RTVSPost2010Prop37
 90
       50
102
RTVSPost2010PropOp37
 70
     1
102
RTVSPost2010Prop38
140
0.0
102
RTVSPost2010PropOp38
 70
     1
102
RTVSPost2010Prop39
140
1.0
102
RTVSPost2010PropOp39
 70
     1
102
RTVSPost2010Prop40
 90
        0
102
RTVSPost2010PropOp40
 70
     1
102
RTVSPost2010Prop41ColorIndex
 90
       18
102
RTVSPost2010Prop41ColorRGB
 90
        0
102
RTVSPost2010PropOp41
 70
     1
102
RTVSPost2010Prop42
 90
       50
102
RTVSPost2010PropOp42
 70
     1
102
RTVSPost2010Prop43
 90
        3
102
RTVSPost2010PropOp43
 70
     1
102
RTVSPost2010Prop44ColorIndex
 90
        5
102
RTVSPost2010Prop44ColorRGB
 90
      255
102
RTVSPost2010PropOp44
 70
     1
102
RTVSPost2010Prop45
280
     0
102
RTVSPost2010PropOp45
 70
     1
102
RTVSPost2010Prop46
 90
       50
102
RTVSPost2010PropOp46
 70
     1
102
RTVSPost2010Prop47
 90
       50
102
RTVSPost2010PropOp47
 70
     1
102
RTVSPost2010Prop48
 90
       50
102
RTVSPost2010PropOp48
 70
     1
102
RTVSPost2010Prop49
280
     0
102
RTVSPost2010PropOp49
 70
     1
102
RTVSPost2010Prop50
 90
       50
102
RTVSPost2010PropOp50
 70
     1
102
RTVSPost2010Prop51ColorIndex
 90
      256
102
RTVSPost2010Prop51ColorRGB
 90
-16777216
102
RTVSPost2010PropOp51
 70
     0
102
RTVSPost2010Prop52
140
1.0
102
RTVSPost2010PropOp52
 70
     0
102
RTVSPost2010Prop53
 90
        2
102
RTVSPost2010PropOp53
 70
     1
102
RTVSPost2010Prop54
  1
strokes_ogs.tif
102
RTVSPost2010PropOp54
 70
     1
102
RTVSPost2010Prop55
280
     0
102
RTVSPost2010PropOp55
 70
     1
102
RTVSPost2010Prop56
140
1.0
102
RTVSPost2010PropOp56
 70
     1
102
RTVSPost2010Prop57
140
1.0
102
RTVSPost2010PropOp57
 70
     1
102
RTVSPropertyOp0
 70
     1
102
RTVSPropertyOp1
 70
     1
102
RTVSPropertyOp2
 70
     1
102
RTVSPropertyOp3
 70
     1
102
RTVSPropertyOp4
 70
     1
102
RTVSPropertyOp5
 70
     1
102
RTVSPropertyOp6
 70
     1
102
RTVSPropertyOp7
 70
     1
102
RTVSPropertyOp8
 70
     1
102
RTVSPropertyOp9
 70
     1
102
RTVSPropertyOp10
 70
     1
102
RTVSPropertyOp11
 70
     1
102
RTVSPropertyOp12
 70
     1
102
RTVSPropertyOp13
 70
     1
102
RTVSPropertyOp14
 70
     1
102
RTVSPropertyOp15
 70
     1
102
RTVSPropertyOp16
 70
     1
102
RTVSPropertyOp17
 70
     1
102
RTVSPropertyOp18
 70
     1
102
RTVSPropertyOp19
 70
     1
102
RTVSPropertyOp20
 70
     1
102
RTVSPropertyOp21
 70
     1
102
RTVSPropertyOp22
 70
     1
102
RTVSPropertyOp23
 70
     1
102
RTVSPropertyOp24
 70
     1
102
RTVSPropertyOp25
 70
     1
102
RTVSPropertyOp26
 70
     1
102
RTVSPropertyOp27
 70
     1
102
RTVSPropertyOp28
 70
     1
102
RTVSPropertyOp29
 70
     1
102
RTVSPropertyOp30
 70
     1
102
RTVSPropertyOp31
 70
     1
102
RTVSPropertyOp32
 70
     1
102
RTVSPropertyOp33
 70
     1
102
RTVSPropertyOp34
 70
     1
102
RTVSPropertyOp35
 70
     1
102
RTVSPropertyOp36
 70
     1
102
RTVSPropertyOp37
 70
     1
102
RTVSPropertyOp38
 70
     1
102
RTVSPropertyOp39
 70
     1
102
RTVSPropertyOp40
 70
     1
102
RTVSPropertyOp41
 70
     1
102
RTVSPropertyOp42
 70
     1
102
RTVSPropertyOp43
 70
     1
102
RTVSPropertyOp44
 70
     1
102
RTVSPropertyOp45
 70
     1
102
RTVSPropertyOp46
 70
     1
102
RTVSPropertyOp47
 70
     1
102
RTVSPropertyOp48
 70
     1
102
RTVSPropertyOp49
 70
     1
102
RTVSPropertyOp50
 70
     1
102
RTVSPropertyOp51
 70
     0
102
RTVSPropertyOp52
 70
     0
102
RTVSPropertyOp53
 70
     1
102
RTVSPropertyOp54
 70
     1
102
RTVSPropertyOp55
 70
     1
102
RTVSPropertyOp56
 70
     1
102
RTVSPropertyOp57
 70
     1
102
RTVSPropertyOp58
 70
     1
102
RTVSPropertyOp59
 70
     1
102
RTVSPropertyOp60
 70
     1
102
RTVSPropertyOp61
 70
     1
102
RTVSPropertyOp62
 70
     1
  0
XRECORD
  5
6F4
102
{ACAD_REACTORS
330
6F3
102
}
330
6F3
100
AcDbXrecord
280
     1
102
RTVSPost2010Prop28
280
     0
102
RTVSPost2010PropOp28
 70
     1
102
RTVSPost2010Prop29
280
     1
102
RTVSPost2010PropOp29
 70
     1
102
RTVSPost2010Prop30
280
     1
102
RTVSPost2010PropOp30
 70
     1
102
RTVSPost2010Prop31
280
     0
102
RTVSPost2010PropOp31
 70
     1
102
RTVSPost2010Prop32
280
     0
102
RTVSPost2010PropOp32
 70
     1
102
RTVSPost2010Prop33
280
     0
102
RTVSPost2010PropOp33
 70
     1
102
RTVSPost2010Prop34
280
     0
102
RTVSPost2010PropOp34
 70
     1
102
RTVSPost2010Prop35
280
     0
102
RTVSPost2010PropOp35
 70
     1
102
RTVSPost2010Prop36
280
     0
102
RTVSPost2010PropOp36
 70
     1
102
RTVSPost2010Prop37
 90
       50
102
RTVSPost2010PropOp37
 70
     1
102
RTVSPost2010Prop38
140
0.0
102
RTVSPost2010PropOp38
 70
     1
102
RTVSPost2010Prop39
140
1.0
102
RTVSPost2010PropOp39
 70
     1
102
RTVSPost2010Prop40
 90
        0
102
RTVSPost2010PropOp40
 70
     1
102
RTVSPost2010Prop41ColorIndex
 90
       18
102
RTVSPost2010Prop41ColorRGB
 90
        0
102
RTVSPost2010PropOp41
 70
     1
102
RTVSPost2010Prop42
 90
       50
102
RTVSPost2010PropOp42
 70
     1
102
RTVSPost2010Prop43
 90
        3
102
RTVSPost2010PropOp43
 70
     1
102
RTVSPost2010Prop44ColorIndex
 90
        5
102
RTVSPost2010Prop44ColorRGB
 90
      255
102
RTVSPost2010PropOp44
 70
     1
102
RTVSPost2010Prop45
280
     0
102
RTVSPost2010PropOp45
 70
     1
102
RTVSPost2010Prop46
 90
       50
102
RTVSPost2010PropOp46
 70
     1
102
RTVSPost2010Prop47
 90
       50
102
RTVSPost2010PropOp47
 70
     1
102
RTVSPost2010Prop48
 90
       50
102
RTVSPost2010PropOp48
 70
     1
102
RTVSPost2010Prop49
280
     0
102
RTVSPost2010PropOp49
 70
     1
102
RTVSPost2010Prop50
 90
       50
102
RTVSPost2010PropOp50
 70
     1
102
RTVSPost2010Prop51ColorIndex
 90
      256
102
RTVSPost2010Prop51ColorRGB
 90
-16777216
102
RTVSPost2010PropOp51
 70
     0
102
RTVSPost2010Prop52
140
1.0
102
RTVSPost2010PropOp52
 70
     0
102
RTVSPost2010Prop53
 90
        2
102
RTVSPost2010PropOp53
 70
     1
102
RTVSPost2010Prop54
  1
strokes_ogs.tif
102
RTVSPost2010PropOp54
 70
     1
102
RTVSPost2010Prop55
280
     0
102
RTVSPost2010PropOp55
 70
     1
102
RTVSPost2010Prop56
140
1.0
102
RTVSPost2010PropOp56
 70
     1
102
RTVSPost2010Prop57
140
1.0
102
RTVSPost2010PropOp57
 70
     1
102
RTVSPropertyOp0
 70
     1
102
RTVSPropertyOp1
 70
     1
102
RTVSPropertyOp2
 70
     1
102
RTVSPropertyOp3
 70
     1
102
RTVSPropertyOp4
 70
     1
102
RTVSPropertyOp5
 70
     1
102
RTVSPropertyOp6
 70
     1
102
RTVSPropertyOp7
 70
     1
102
RTVSPropertyOp8
 70
     1
102
RTVSPropertyOp9
 70
     1
102
RTVSPropertyOp10
 70
     1
102
RTVSPropertyOp11
 70
     1
102
RTVSPropertyOp12
 70
     1
102
RTVSPropertyOp13
 70
     1
102
RTVSPropertyOp14
 70
     1
102
RTVSPropertyOp15
 70
     1
102
RTVSPropertyOp16
 70
     1
102
RTVSPropertyOp17
 70
     1
102
RTVSPropertyOp18
 70
     1
102
RTVSPropertyOp19
 70
     1
102
RTVSPropertyOp20
 70
     1
102
RTVSPropertyOp21
 70
     1
102
RTVSPropertyOp22
 70
     1
102
RTVSPropertyOp23
 70
     1
102
RTVSPropertyOp24
 70
     1
102
RTVSPropertyOp25
 70
     1
102
RTVSPropertyOp26
 70
     1
102
RTVSPropertyOp27
 70
     1
102
RTVSPropertyOp28
 70
     1
102
RTVSPropertyOp29
 70
     1
102
RTVSPropertyOp30
 70
     1
102
RTVSPropertyOp31
 70
     1
102
RTVSPropertyOp32
 70
     1
102
RTVSPropertyOp33
 70
     1
102
RTVSPropertyOp34
 70
     1
102
RTVSPropertyOp35
 70
     1
102
RTVSPropertyOp36
 70
     1
102
RTVSPropertyOp37
 70
     1
102
RTVSPropertyOp38
 70
     1
102
RTVSPropertyOp39
 70
     1
102
RTVSPropertyOp40
 70
     1
102
RTVSPropertyOp41
 70
     1
102
RTVSPropertyOp42
 70
     1
102
RTVSPropertyOp43
 70
     1
102
RTVSPropertyOp44
 70
     1
102
RTVSPropertyOp45
 70
     1
102
RTVSPropertyOp46
 70
     1
102
RTVSPropertyOp47
 70
     1
102
RTVSPropertyOp48
 70
     1
102
RTVSPropertyOp49
 70
     1
102
RTVSPropertyOp50
 70
     1
102
RTVSPropertyOp51
 70
     0
102
RTVSPropertyOp52
 70
     0
102
RTVSPropertyOp53
 70
     1
102
RTVSPropertyOp54
 70
     1
102
RTVSPropertyOp55
 70
     1
102
RTVSPropertyOp56
 70
     1
102
RTVSPropertyOp57
 70
     1
102
RTVSPropertyOp58
 70
     1
102
RTVSPropertyOp59
 70
     1
102
RTVSPropertyOp60
 70
     1
102
RTVSPropertyOp61
 70
     1
102
RTVSPropertyOp62
 70
     1
  0
XRECORD
  5
6F6
102
{ACAD_REACTORS
330
6F5
102
}
330
6F5
100
AcDbXrecord
280
     1
102
RTVSPost2010Prop28
280
     0
102
RTVSPost2010PropOp28
 70
     1
102
RTVSPost2010Prop29
280
     1
102
RTVSPost2010PropOp29
 70
     1
102
RTVSPost2010Prop30
280
     1
102
RTVSPost2010PropOp30
 70
     1
102
RTVSPost2010Prop31
280
     0
102
RTVSPost2010PropOp31
 70
     1
102
RTVSPost2010Prop32
280
     0
102
RTVSPost2010PropOp32
 70
     1
102
RTVSPost2010Prop33
280
     0
102
RTVSPost2010PropOp33
 70
     1
102
RTVSPost2010Prop34
280
     0
102
RTVSPost2010PropOp34
 70
     1
102
RTVSPost2010Prop35
280
     0
102
RTVSPost2010PropOp35
 70
     1
102
RTVSPost2010Prop36
280
     0
102
RTVSPost2010PropOp36
 70
     1
102
RTVSPost2010Prop37
 90
       50
102
RTVSPost2010PropOp37
 70
     1
102
RTVSPost2010Prop38
140
0.0
102
RTVSPost2010PropOp38
 70
     1
102
RTVSPost2010Prop39
140
1.0
102
RTVSPost2010PropOp39
 70
     1
102
RTVSPost2010Prop40
 90
        0
102
RTVSPost2010PropOp40
 70
     1
102
RTVSPost2010Prop41ColorIndex
 90
       18
102
RTVSPost2010Prop41ColorRGB
 90
        0
102
RTVSPost2010PropOp41
 70
     1
102
RTVSPost2010Prop42
 90
       50
102
RTVSPost2010PropOp42
 70
     1
102
RTVSPost2010Prop43
 90
        3
102
RTVSPost2010PropOp43
 70
     1
102
RTVSPost2010Prop44ColorIndex
 90
        5
102
RTVSPost2010Prop44ColorRGB
 90
      255
102
RTVSPost2010PropOp44
 70
     1
102
RTVSPost2010Prop45
280
     0
102
RTVSPost2010PropOp45
 70
     1
102
RTVSPost2010Prop46
 90
       50
102
RTVSPost2010PropOp46
 70
     1
102
RTVSPost2010Prop47
 90
       50
102
RTVSPost2010PropOp47
 70
     1
102
RTVSPost2010Prop48
 90
       50
102
RTVSPost2010PropOp48
 70
     1
102
RTVSPost2010Prop49
280
     0
102
RTVSPost2010PropOp49
 70
     1
102
RTVSPost2010Prop50
 90
       50
102
RTVSPost2010PropOp50
 70
     1
102
RTVSPost2010Prop51ColorIndex
 90
      256
102
RTVSPost2010Prop51ColorRGB
 90
-16777216
102
RTVSPost2010PropOp51
 70
     0
102
RTVSPost2010Prop52
140
1.0
102
RTVSPost2010PropOp52
 70
     0
102
RTVSPost2010Prop53
 90
        2
102
RTVSPost2010PropOp53
 70
     1
102
RTVSPost2010Prop54
  1
strokes_ogs.tif
102
RTVSPost2010PropOp54
 70
     1
102
RTVSPost2010Prop55
280
     0
102
RTVSPost2010PropOp55
 70
     1
102
RTVSPost2010Prop56
140
1.0
102
RTVSPost2010PropOp56
 70
     1
102
RTVSPost2010Prop57
140
1.0
102
RTVSPost2010PropOp57
 70
     1
102
RTVSPropertyOp0
 70
     1
102
RTVSPropertyOp1
 70
     1
102
RTVSPropertyOp2
 70
     1
102
RTVSPropertyOp3
 70
     1
102
RTVSPropertyOp4
 70
     1
102
RTVSPropertyOp5
 70
     1
102
RTVSPropertyOp6
 70
     1
102
RTVSPropertyOp7
 70
     1
102
RTVSPropertyOp8
 70
     1
102
RTVSPropertyOp9
 70
     1
102
RTVSPropertyOp10
 70
     1
102
RTVSPropertyOp11
 70
     1
102
RTVSPropertyOp12
 70
     1
102
RTVSPropertyOp13
 70
     1
102
RTVSPropertyOp14
 70
     1
102
RTVSPropertyOp15
 70
     1
102
RTVSPropertyOp16
 70
     1
102
RTVSPropertyOp17
 70
     1
102
RTVSPropertyOp18
 70
     1
102
RTVSPropertyOp19
 70
     1
102
RTVSPropertyOp20
 70
     1
102
RTVSPropertyOp21
 70
     1
102
RTVSPropertyOp22
 70
     1
102
RTVSPropertyOp23
 70
     1
102
RTVSPropertyOp24
 70
     1
102
RTVSPropertyOp25
 70
     1
102
RTVSPropertyOp26
 70
     1
102
RTVSPropertyOp27
 70
     1
102
RTVSPropertyOp28
 70
     1
102
RTVSPropertyOp29
 70
     1
102
RTVSPropertyOp30
 70
     1
102
RTVSPropertyOp31
 70
     1
102
RTVSPropertyOp32
 70
     1
102
RTVSPropertyOp33
 70
     1
102
RTVSPropertyOp34
 70
     1
102
RTVSPropertyOp35
 70
     1
102
RTVSPropertyOp36
 70
     1
102
RTVSPropertyOp37
 70
     1
102
RTVSPropertyOp38
 70
     1
102
RTVSPropertyOp39
 70
     1
102
RTVSPropertyOp40
 70
     1
102
RTVSPropertyOp41
 70
     1
102
RTVSPropertyOp42
 70
     1
102
RTVSPropertyOp43
 70
     1
102
RTVSPropertyOp44
 70
     1
102
RTVSPropertyOp45
 70
     1
102
RTVSPropertyOp46
 70
     1
102
RTVSPropertyOp47
 70
     1
102
RTVSPropertyOp48
 70
     1
102
RTVSPropertyOp49
 70
     1
102
RTVSPropertyOp50
 70
     1
102
RTVSPropertyOp51
 70
     0
102
RTVSPropertyOp52
 70
     0
102
RTVSPropertyOp53
 70
     1
102
RTVSPropertyOp54
 70
     1
102
RTVSPropertyOp55
 70
     1
102
RTVSPropertyOp56
 70
     1
102
RTVSPropertyOp57
 70
     1
102
RTVSPropertyOp58
 70
     1
102
RTVSPropertyOp59
 70
     1
102
RTVSPropertyOp60
 70
     1
102
RTVSPropertyOp61
 70
     1
102
RTVSPropertyOp62
 70
     1
  0
XRECORD
  5
6FE
102
{ACAD_REACTORS
330
6FD
102
}
330
6FD
100
AcDbXrecord
280
     1
102
RTVSPost2010Prop28
280
     0
102
RTVSPost2010PropOp28
 70
     1
102
RTVSPost2010Prop29
280
     1
102
RTVSPost2010PropOp29
 70
     1
102
RTVSPost2010Prop30
280
     1
102
RTVSPost2010PropOp30
 70
     1
102
RTVSPost2010Prop31
280
     0
102
RTVSPost2010PropOp31
 70
     1
102
RTVSPost2010Prop32
280
     0
102
RTVSPost2010PropOp32
 70
     1
102
RTVSPost2010Prop33
280
     0
102
RTVSPost2010PropOp33
 70
     1
102
RTVSPost2010Prop34
280
     0
102
RTVSPost2010PropOp34
 70
     1
102
RTVSPost2010Prop35
280
     0
102
RTVSPost2010PropOp35
 70
     1
102
RTVSPost2010Prop36
280
     0
102
RTVSPost2010PropOp36
 70
     1
102
RTVSPost2010Prop37
 90
       50
102
RTVSPost2010PropOp37
 70
     1
102
RTVSPost2010Prop38
140
0.0
102
RTVSPost2010PropOp38
 70
     1
102
RTVSPost2010Prop39
140
1.0
102
RTVSPost2010PropOp39
 70
     1
102
RTVSPost2010Prop40
 90
        0
102
RTVSPost2010PropOp40
 70
     1
102
RTVSPost2010Prop41ColorIndex
 90
       18
102
RTVSPost2010Prop41ColorRGB
 90
        0
102
RTVSPost2010PropOp41
 70
     1
102
RTVSPost2010Prop42
 90
       50
102
RTVSPost2010PropOp42
 70
     1
102
RTVSPost2010Prop43
 90
        3
102
RTVSPost2010PropOp43
 70
     1
102
RTVSPost2010Prop44ColorIndex
 90
        5
102
RTVSPost2010Prop44ColorRGB
 90
      255
102
RTVSPost2010PropOp44
 70
     1
102
RTVSPost2010Prop45
280
     0
102
RTVSPost2010PropOp45
 70
     1
102
RTVSPost2010Prop46
 90
       50
102
RTVSPost2010PropOp46
 70
     1
102
RTVSPost2010Prop47
 90
       50
102
RTVSPost2010PropOp47
 70
     1
102
RTVSPost2010Prop48
 90
       50
102
RTVSPost2010PropOp48
 70
     1
102
RTVSPost2010Prop49
280
     0
102
RTVSPost2010PropOp49
 70
     1
102
RTVSPost2010Prop50
 90
       50
102
RTVSPost2010PropOp50
 70
     1
102
RTVSPost2010Prop51ColorIndex
 90
      256
102
RTVSPost2010Prop51ColorRGB
 90
-16777216
102
RTVSPost2010PropOp51
 70
     0
102
RTVSPost2010Prop52
140
1.0
102
RTVSPost2010PropOp52
 70
     0
102
RTVSPost2010Prop53
 90
        2
102
RTVSPost2010PropOp53
 70
     1
102
RTVSPost2010Prop54
  1
strokes_ogs.tif
102
RTVSPost2010PropOp54
 70
     1
102
RTVSPost2010Prop55
280
     0
102
RTVSPost2010PropOp55
 70
     1
102
RTVSPost2010Prop56
140
1.0
102
RTVSPost2010PropOp56
 70
     1
102
RTVSPost2010Prop57
140
1.0
102
RTVSPost2010PropOp57
 70
     1
102
RTVSPropertyOp0
 70
     1
102
RTVSPropertyOp1
 70
     1
102
RTVSPropertyOp2
 70
     1
102
RTVSPropertyOp3
 70
     1
102
RTVSPropertyOp4
 70
     1
102
RTVSPropertyOp5
 70
     1
102
RTVSPropertyOp6
 70
     1
102
RTVSPropertyOp7
 70
     1
102
RTVSPropertyOp8
 70
     1
102
RTVSPropertyOp9
 70
     1
102
RTVSPropertyOp10
 70
     1
102
RTVSPropertyOp11
 70
     1
102
RTVSPropertyOp12
 70
     1
102
RTVSPropertyOp13
 70
     1
102
RTVSPropertyOp14
 70
     1
102
RTVSPropertyOp15
 70
     1
102
RTVSPropertyOp16
 70
     1
102
RTVSPropertyOp17
 70
     1
102
RTVSPropertyOp18
 70
     1
102
RTVSPropertyOp19
 70
     1
102
RTVSPropertyOp20
 70
     1
102
RTVSPropertyOp21
 70
     1
102
RTVSPropertyOp22
 70
     1
102
RTVSPropertyOp23
 70
     1
102
RTVSPropertyOp24
 70
     1
102
RTVSPropertyOp25
 70
     1
102
RTVSPropertyOp26
 70
     1
102
RTVSPropertyOp27
 70
     1
102
RTVSPropertyOp28
 70
     1
102
RTVSPropertyOp29
 70
     1
102
RTVSPropertyOp30
 70
     1
102
RTVSPropertyOp31
 70
     1
102
RTVSPropertyOp32
 70
     1
102
RTVSPropertyOp33
 70
     1
102
RTVSPropertyOp34
 70
     1
102
RTVSPropertyOp35
 70
     1
102
RTVSPropertyOp36
 70
     1
102
RTVSPropertyOp37
 70
     1
102
RTVSPropertyOp38
 70
     1
102
RTVSPropertyOp39
 70
     1
102
RTVSPropertyOp40
 70
     1
102
RTVSPropertyOp41
 70
     1
102
RTVSPropertyOp42
 70
     1
102
RTVSPropertyOp43
 70
     1
102
RTVSPropertyOp44
 70
     1
102
RTVSPropertyOp45
 70
     1
102
RTVSPropertyOp46
 70
     1
102
RTVSPropertyOp47
 70
     1
102
RTVSPropertyOp48
 70
     1
102
RTVSPropertyOp49
 70
     1
102
RTVSPropertyOp50
 70
     1
102
RTVSPropertyOp51
 70
     0
102
RTVSPropertyOp52
 70
     0
102
RTVSPropertyOp53
 70
     1
102
RTVSPropertyOp54
 70
     1
102
RTVSPropertyOp55
 70
     1
102
RTVSPropertyOp56
 70
     1
102
RTVSPropertyOp57
 70
     1
102
RTVSPropertyOp58
 70
     1
102
RTVSPropertyOp59
 70
     1
102
RTVSPropertyOp60
 70
     1
102
RTVSPropertyOp61
 70
     1
102
RTVSPropertyOp62
 70
     1
  0
XRECORD
  5
71A
102
{ACAD_REACTORS
330
719
102
}
330
719
100
AcDbXrecord
280
     1
102
RTVSPost2010Prop28
280
     0
102
RTVSPost2010PropOp28
 70
     1
102
RTVSPost2010Prop29
280
     1
102
RTVSPost2010PropOp29
 70
     1
102
RTVSPost2010Prop30
280
     1
102
RTVSPost2010PropOp30
 70
     1
102
RTVSPost2010Prop31
280
     0
102
RTVSPost2010PropOp31
 70
     1
102
RTVSPost2010Prop32
280
     0
102
RTVSPost2010PropOp32
 70
     1
102
RTVSPost2010Prop33
280
     0
102
RTVSPost2010PropOp33
 70
     1
102
RTVSPost2010Prop34
280
     0
102
RTVSPost2010PropOp34
 70
     1
102
RTVSPost2010Prop35
280
     0
102
RTVSPost2010PropOp35
 70
     1
102
RTVSPost2010Prop36
280
     0
102
RTVSPost2010PropOp36
 70
     1
102
RTVSPost2010Prop37
 90
       50
102
RTVSPost2010PropOp37
 70
     0
102
RTVSPost2010Prop38
140
0.0
102
RTVSPost2010PropOp38
 70
     0
102
RTVSPost2010Prop39
140
1.0
102
RTVSPost2010PropOp39
 70
     0
102
RTVSPost2010Prop40
 90
        0
102
RTVSPost2010PropOp40
 70
     0
102
RTVSPost2010Prop41ColorIndex
 90
       18
102
RTVSPost2010Prop41ColorRGB
 90
        0
102
RTVSPost2010PropOp41
 70
     0
102
RTVSPost2010Prop42
 90
       50
102
RTVSPost2010PropOp42
 70
     0
102
RTVSPost2010Prop43
 90
        3
102
RTVSPost2010PropOp43
 70
     0
102
RTVSPost2010Prop44ColorIndex
 90
        5
102
RTVSPost2010Prop44ColorRGB
 90
      255
102
RTVSPost2010PropOp44
 70
     0
102
RTVSPost2010Prop45
280
     0
102
RTVSPost2010PropOp45
 70
     1
102
RTVSPost2010Prop46
 90
       50
102
RTVSPost2010PropOp46
 70
     0
102
RTVSPost2010Prop47
 90
       50
102
RTVSPost2010PropOp47
 70
     0
102
RTVSPost2010Prop48
 90
       50
102
RTVSPost2010PropOp48
 70
     0
102
RTVSPost2010Prop49
280
     0
102
RTVSPost2010PropOp49
 70
     1
102
RTVSPost2010Prop50
 90
       50
102
RTVSPost2010PropOp50
 70
     0
102
RTVSPost2010Prop51ColorIndex
 90
      256
102
RTVSPost2010Prop51ColorRGB
 90
-16777216
102
RTVSPost2010PropOp51
 70
     0
102
RTVSPost2010Prop52
140
1.0
102
RTVSPost2010PropOp52
 70
     0
102
RTVSPost2010Prop53
 90
        2
102
RTVSPost2010PropOp53
 70
     0
102
RTVSPost2010Prop54
  1
strokes_ogs.tif
102
RTVSPost2010PropOp54
 70
     0
102
RTVSPost2010Prop55
280
     0
102
RTVSPost2010PropOp55
 70
     1
102
RTVSPost2010Prop56
140
1.0
102
RTVSPost2010PropOp56
 70
     0
102
RTVSPost2010Prop57
140
1.0
102
RTVSPost2010PropOp57
 70
     0
102
RTVSPropertyOp0
 70
     0
102
RTVSPropertyOp1
 70
     0
102
RTVSPropertyOp2
 70
     0
102
RTVSPropertyOp3
 70
     0
102
RTVSPropertyOp4
 70
     0
102
RTVSPropertyOp5
 70
     0
102
RTVSPropertyOp6
 70
     0
102
RTVSPropertyOp7
 70
     0
102
RTVSPropertyOp8
 70
     0
102
RTVSPropertyOp9
 70
     0
102
RTVSPropertyOp10
 70
     0
102
RTVSPropertyOp11
 70
     0
102
RTVSPropertyOp12
 70
     0
102
RTVSPropertyOp13
 70
     0
102
RTVSPropertyOp14
 70
     2
102
RTVSPropertyOp15
 70
     0
102
RTVSPropertyOp16
 70
     0
102
RTVSPropertyOp17
 70
     0
102
RTVSPropertyOp18
 70
     0
102
RTVSPropertyOp19
 70
     0
102
RTVSPropertyOp20
 70
     0
102
RTVSPropertyOp21
 70
     0
102
RTVSPropertyOp22
 70
     0
102
RTVSPropertyOp23
 70
     0
102
RTVSPropertyOp24
 70
     0
102
RTVSPropertyOp25
 70
     0
102
RTVSPropertyOp26
 70
     0
102
RTVSPropertyOp27
 70
     0
102
RTVSPropertyOp28
 70
     1
102
RTVSPropertyOp29
 70
     1
102
RTVSPropertyOp30
 70
     1
102
RTVSPropertyOp31
 70
     1
102
RTVSPropertyOp32
 70
     1
102
RTVSPropertyOp33
 70
     1
102
RTVSPropertyOp34
 70
     1
102
RTVSPropertyOp35
 70
     1
102
RTVSPropertyOp36
 70
     1
102
RTVSPropertyOp37
 70
     0
102
RTVSPropertyOp38
 70
     0
102
RTVSPropertyOp39
 70
     0
102
RTVSPropertyOp40
 70
     0
102
RTVSPropertyOp41
 70
     0
102
RTVSPropertyOp42
 70
     0
102
RTVSPropertyOp43
 70
     0
102
RTVSPropertyOp44
 70
     0
102
RTVSPropertyOp45
 70
     1
102
RTVSPropertyOp46
 70
     0
102
RTVSPropertyOp47
 70
     0
102
RTVSPropertyOp48
 70
     0
102
RTVSPropertyOp49
 70
     1
102
RTVSPropertyOp50
 70
     0
102
RTVSPropertyOp51
 70
     0
102
RTVSPropertyOp52
 70
     0
102
RTVSPropertyOp53
 70
     0
102
RTVSPropertyOp54
 70
     0
102
RTVSPropertyOp55
 70
     1
102
RTVSPropertyOp56
 70
     0
102
RTVSPropertyOp57
 70
     0
102
RTVSPropertyOp58
 70
     0
102
RTVSPropertyOp59
 70
     0
102
RTVSPropertyOp60
 70
     0
102
RTVSPropertyOp61
 70
     0
102
RTVSPropertyOp62
 70
     0
  0
XRECORD
  5
70A
102
{ACAD_REACTORS
330
709
102
}
330
709
100
AcDbXrecord
280
     1
102
RTVSPost2010Prop28
280
     0
102
RTVSPost2010PropOp28
 70
     1
102
RTVSPost2010Prop29
280
     1
102
RTVSPost2010PropOp29
 70
     1
102
RTVSPost2010Prop30
280
     1
102
RTVSPost2010PropOp30
 70
     1
102
RTVSPost2010Prop31
280
     0
102
RTVSPost2010PropOp31
 70
     1
102
RTVSPost2010Prop32
280
     0
102
RTVSPost2010PropOp32
 70
     1
102
RTVSPost2010Prop33
280
     0
102
RTVSPost2010PropOp33
 70
     1
102
RTVSPost2010Prop34
280
     0
102
RTVSPost2010PropOp34
 70
     1
102
RTVSPost2010Prop35
280
     0
102
RTVSPost2010PropOp35
 70
     1
102
RTVSPost2010Prop36
280
     0
102
RTVSPost2010PropOp36
 70
     1
102
RTVSPost2010Prop37
 90
       50
102
RTVSPost2010PropOp37
 70
     1
102
RTVSPost2010Prop38
140
0.0
102
RTVSPost2010PropOp38
 70
     1
102
RTVSPost2010Prop39
140
1.0
102
RTVSPost2010PropOp39
 70
     1
102
RTVSPost2010Prop40
 90
        0
102
RTVSPost2010PropOp40
 70
     1
102
RTVSPost2010Prop41ColorIndex
 90
       18
102
RTVSPost2010Prop41ColorRGB
 90
        0
102
RTVSPost2010PropOp41
 70
     1
102
RTVSPost2010Prop42
 90
       50
102
RTVSPost2010PropOp42
 70
     1
102
RTVSPost2010Prop43
 90
        3
102
RTVSPost2010PropOp43
 70
     1
102
RTVSPost2010Prop44ColorIndex
 90
        5
102
RTVSPost2010Prop44ColorRGB
 90
      255
102
RTVSPost2010PropOp44
 70
     1
102
RTVSPost2010Prop45
280
     0
102
RTVSPost2010PropOp45
 70
     1
102
RTVSPost2010Prop46
 90
       50
102
RTVSPost2010PropOp46
 70
     1
102
RTVSPost2010Prop47
 90
       50
102
RTVSPost2010PropOp47
 70
     1
102
RTVSPost2010Prop48
 90
       50
102
RTVSPost2010PropOp48
 70
     1
102
RTVSPost2010Prop49
280
     0
102
RTVSPost2010PropOp49
 70
     1
102
RTVSPost2010Prop50
 90
       50
102
RTVSPost2010PropOp50
 70
     1
102
RTVSPost2010Prop51ColorIndex
 90
      256
102
RTVSPost2010Prop51ColorRGB
 90
-16777216
102
RTVSPost2010PropOp51
 70
     0
102
RTVSPost2010Prop52
140
1.0
102
RTVSPost2010PropOp52
 70
     0
102
RTVSPost2010Prop53
 90
        2
102
RTVSPost2010PropOp53
 70
     1
102
RTVSPost2010Prop54
  1
strokes_ogs.tif
102
RTVSPost2010PropOp54
 70
     1
102
RTVSPost2010Prop55
280
     0
102
RTVSPost2010PropOp55
 70
     1
102
RTVSPost2010Prop56
140
1.0
102
RTVSPost2010PropOp56
 70
     1
102
RTVSPost2010Prop57
140
1.0
102
RTVSPost2010PropOp57
 70
     1
102
RTVSPropertyOp0
 70
     1
102
RTVSPropertyOp1
 70
     1
102
RTVSPropertyOp2
 70
     1
102
RTVSPropertyOp3
 70
     1
102
RTVSPropertyOp4
 70
     1
102
RTVSPropertyOp5
 70
     1
102
RTVSPropertyOp6
 70
     1
102
RTVSPropertyOp7
 70
     1
102
RTVSPropertyOp8
 70
     1
102
RTVSPropertyOp9
 70
     1
102
RTVSPropertyOp10
 70
     1
102
RTVSPropertyOp11
 70
     1
102
RTVSPropertyOp12
 70
     1
102
RTVSPropertyOp13
 70
     1
102
RTVSPropertyOp14
 70
     1
102
RTVSPropertyOp15
 70
     1
102
RTVSPropertyOp16
 70
     1
102
RTVSPropertyOp17
 70
     1
102
RTVSPropertyOp18
 70
     1
102
RTVSPropertyOp19
 70
     1
102
RTVSPropertyOp20
 70
     1
102
RTVSPropertyOp21
 70
     1
102
RTVSPropertyOp22
 70
     1
102
RTVSPropertyOp23
 70
     1
102
RTVSPropertyOp24
 70
     1
102
RTVSPropertyOp25
 70
     1
102
RTVSPropertyOp26
 70
     1
102
RTVSPropertyOp27
 70
     1
102
RTVSPropertyOp28
 70
     1
102
RTVSPropertyOp29
 70
     1
102
RTVSPropertyOp30
 70
     1
102
RTVSPropertyOp31
 70
     1
102
RTVSPropertyOp32
 70
     1
102
RTVSPropertyOp33
 70
     1
102
RTVSPropertyOp34
 70
     1
102
RTVSPropertyOp35
 70
     1
102
RTVSPropertyOp36
 70
     1
102
RTVSPropertyOp37
 70
     1
102
RTVSPropertyOp38
 70
     1
102
RTVSPropertyOp39
 70
     1
102
RTVSPropertyOp40
 70
     1
102
RTVSPropertyOp41
 70
     1
102
RTVSPropertyOp42
 70
     1
102
RTVSPropertyOp43
 70
     1
102
RTVSPropertyOp44
 70
     1
102
RTVSPropertyOp45
 70
     1
102
RTVSPropertyOp46
 70
     1
102
RTVSPropertyOp47
 70
     1
102
RTVSPropertyOp48
 70
     1
102
RTVSPropertyOp49
 70
     1
102
RTVSPropertyOp50
 70
     1
102
RTVSPropertyOp51
 70
     0
102
RTVSPropertyOp52
 70
     0
102
RTVSPropertyOp53
 70
     1
102
RTVSPropertyOp54
 70
     1
102
RTVSPropertyOp55
 70
     1
102
RTVSPropertyOp56
 70
     1
102
RTVSPropertyOp57
 70
     1
102
RTVSPropertyOp58
 70
     1
102
RTVSPropertyOp59
 70
     1
102
RTVSPropertyOp60
 70
     1
102
RTVSPropertyOp61
 70
     1
102
RTVSPropertyOp62
 70
     1
  0
XRECORD
  5
71C
102
{ACAD_REACTORS
330
71B
102
}
330
71B
100
AcDbXrecord
280
     1
102
RTVSPost2010Prop28
280
     0
102
RTVSPost2010PropOp28
 70
     1
102
RTVSPost2010Prop29
280
     1
102
RTVSPost2010PropOp29
 70
     1
102
RTVSPost2010Prop30
280
     1
102
RTVSPost2010PropOp30
 70
     1
102
RTVSPost2010Prop31
280
     0
102
RTVSPost2010PropOp31
 70
     1
102
RTVSPost2010Prop32
280
     0
102
RTVSPost2010PropOp32
 70
     1
102
RTVSPost2010Prop33
280
     0
102
RTVSPost2010PropOp33
 70
     1
102
RTVSPost2010Prop34
280
     0
102
RTVSPost2010PropOp34
 70
     1
102
RTVSPost2010Prop35
280
     0
102
RTVSPost2010PropOp35
 70
     1
102
RTVSPost2010Prop36
280
     0
102
RTVSPost2010PropOp36
 70
     1
102
RTVSPost2010Prop37
 90
       50
102
RTVSPost2010PropOp37
 70
     0
102
RTVSPost2010Prop38
140
0.0
102
RTVSPost2010PropOp38
 70
     0
102
RTVSPost2010Prop39
140
1.0
102
RTVSPost2010PropOp39
 70
     0
102
RTVSPost2010Prop40
 90
        0
102
RTVSPost2010PropOp40
 70
     0
102
RTVSPost2010Prop41ColorIndex
 90
       18
102
RTVSPost2010Prop41ColorRGB
 90
        0
102
RTVSPost2010PropOp41
 70
     0
102
RTVSPost2010Prop42
 90
       50
102
RTVSPost2010PropOp42
 70
     0
102
RTVSPost2010Prop43
 90
        3
102
RTVSPost2010PropOp43
 70
     0
102
RTVSPost2010Prop44ColorIndex
 90
        5
102
RTVSPost2010Prop44ColorRGB
 90
      255
102
RTVSPost2010PropOp44
 70
     0
102
RTVSPost2010Prop45
280
     0
102
RTVSPost2010PropOp45
 70
     1
102
RTVSPost2010Prop46
 90
       50
102
RTVSPost2010PropOp46
 70
     0
102
RTVSPost2010Prop47
 90
       50
102
RTVSPost2010PropOp47
 70
     0
102
RTVSPost2010Prop48
 90
       50
102
RTVSPost2010PropOp48
 70
     0
102
RTVSPost2010Prop49
280
     0
102
RTVSPost2010PropOp49
 70
     1
102
RTVSPost2010Prop50
 90
       50
102
RTVSPost2010PropOp50
 70
     0
102
RTVSPost2010Prop51ColorIndex
 90
      256
102
RTVSPost2010Prop51ColorRGB
 90
-16777216
102
RTVSPost2010PropOp51
 70
     0
102
RTVSPost2010Prop52
140
1.0
102
RTVSPost2010PropOp52
 70
     0
102
RTVSPost2010Prop53
 90
        2
102
RTVSPost2010PropOp53
 70
     0
102
RTVSPost2010Prop54
  1
strokes_ogs.tif
102
RTVSPost2010PropOp54
 70
     0
102
RTVSPost2010Prop55
280
     0
102
RTVSPost2010PropOp55
 70
     1
102
RTVSPost2010Prop56
140
1.0
102
RTVSPost2010PropOp56
 70
     0
102
RTVSPost2010Prop57
140
1.0
102
RTVSPost2010PropOp57
 70
     0
102
RTVSPropertyOp0
 70
     0
102
RTVSPropertyOp1
 70
     0
102
RTVSPropertyOp2
 70
     0
102
RTVSPropertyOp3
 70
     0
102
RTVSPropertyOp4
 70
     0
102
RTVSPropertyOp5
 70
     0
102
RTVSPropertyOp6
 70
     0
102
RTVSPropertyOp7
 70
     0
102
RTVSPropertyOp8
 70
     0
102
RTVSPropertyOp9
 70
     0
102
RTVSPropertyOp10
 70
     0
102
RTVSPropertyOp11
 70
     0
102
RTVSPropertyOp12
 70
     0
102
RTVSPropertyOp13
 70
     0
102
RTVSPropertyOp14
 70
     2
102
RTVSPropertyOp15
 70
     0
102
RTVSPropertyOp16
 70
     0
102
RTVSPropertyOp17
 70
     0
102
RTVSPropertyOp18
 70
     0
102
RTVSPropertyOp19
 70
     0
102
RTVSPropertyOp20
 70
     0
102
RTVSPropertyOp21
 70
     0
102
RTVSPropertyOp22
 70
     0
102
RTVSPropertyOp23
 70
     0
102
RTVSPropertyOp24
 70
     0
102
RTVSPropertyOp25
 70
     0
102
RTVSPropertyOp26
 70
     0
102
RTVSPropertyOp27
 70
     0
102
RTVSPropertyOp28
 70
     1
102
RTVSPropertyOp29
 70
     1
102
RTVSPropertyOp30
 70
     1
102
RTVSPropertyOp31
 70
     1
102
RTVSPropertyOp32
 70
     1
102
RTVSPropertyOp33
 70
     1
102
RTVSPropertyOp34
 70
     1
102
RTVSPropertyOp35
 70
     1
102
RTVSPropertyOp36
 70
     1
102
RTVSPropertyOp37
 70
     0
102
RTVSPropertyOp38
 70
     0
102
RTVSPropertyOp39
 70
     0
102
RTVSPropertyOp40
 70
     0
102
RTVSPropertyOp41
 70
     0
102
RTVSPropertyOp42
 70
     0
102
RTVSPropertyOp43
 70
     0
102
RTVSPropertyOp44
 70
     0
102
RTVSPropertyOp45
 70
     1
102
RTVSPropertyOp46
 70
     0
102
RTVSPropertyOp47
 70
     0
102
RTVSPropertyOp48
 70
     0
102
RTVSPropertyOp49
 70
     1
102
RTVSPropertyOp50
 70
     0
102
RTVSPropertyOp51
 70
     0
102
RTVSPropertyOp52
 70
     0
102
RTVSPropertyOp53
 70
     0
102
RTVSPropertyOp54
 70
     0
102
RTVSPropertyOp55
 70
     1
102
RTVSPropertyOp56
 70
     0
102
RTVSPropertyOp57
 70
     0
102
RTVSPropertyOp58
 70
     0
102
RTVSPropertyOp59
 70
     0
102
RTVSPropertyOp60
 70
     0
102
RTVSPropertyOp61
 70
     0
102
RTVSPropertyOp62
 70
     0
  0
XRECORD
  5
702
102
{ACAD_REACTORS
330
701
102
}
330
701
100
AcDbXrecord
280
     1
102
RTVSPost2010Prop28
280
     0
102
RTVSPost2010PropOp28
 70
     1
102
RTVSPost2010Prop29
280
     1
102
RTVSPost2010PropOp29
 70
     1
102
RTVSPost2010Prop30
280
     1
102
RTVSPost2010PropOp30
 70
     1
102
RTVSPost2010Prop31
280
     0
102
RTVSPost2010PropOp31
 70
     1
102
RTVSPost2010Prop32
280
     0
102
RTVSPost2010PropOp32
 70
     1
102
RTVSPost2010Prop33
280
     0
102
RTVSPost2010PropOp33
 70
     1
102
RTVSPost2010Prop34
280
     0
102
RTVSPost2010PropOp34
 70
     1
102
RTVSPost2010Prop35
280
     0
102
RTVSPost2010PropOp35
 70
     1
102
RTVSPost2010Prop36
280
     0
102
RTVSPost2010PropOp36
 70
     1
102
RTVSPost2010Prop37
 90
       50
102
RTVSPost2010PropOp37
 70
     1
102
RTVSPost2010Prop38
140
0.0
102
RTVSPost2010PropOp38
 70
     1
102
RTVSPost2010Prop39
140
1.0
102
RTVSPost2010PropOp39
 70
     1
102
RTVSPost2010Prop40
 90
        0
102
RTVSPost2010PropOp40
 70
     1
102
RTVSPost2010Prop41ColorIndex
 90
       18
102
RTVSPost2010Prop41ColorRGB
 90
        0
102
RTVSPost2010PropOp41
 70
     1
102
RTVSPost2010Prop42
 90
       50
102
RTVSPost2010PropOp42
 70
     1
102
RTVSPost2010Prop43
 90
        3
102
RTVSPost2010PropOp43
 70
     1
102
RTVSPost2010Prop44ColorIndex
 90
        5
102
RTVSPost2010Prop44ColorRGB
 90
      255
102
RTVSPost2010PropOp44
 70
     1
102
RTVSPost2010Prop45
280
     0
102
RTVSPost2010PropOp45
 70
     1
102
RTVSPost2010Prop46
 90
       50
102
RTVSPost2010PropOp46
 70
     1
102
RTVSPost2010Prop47
 90
       50
102
RTVSPost2010PropOp47
 70
     1
102
RTVSPost2010Prop48
 90
       50
102
RTVSPost2010PropOp48
 70
     1
102
RTVSPost2010Prop49
280
     0
102
RTVSPost2010PropOp49
 70
     1
102
RTVSPost2010Prop50
 90
       50
102
RTVSPost2010PropOp50
 70
     1
102
RTVSPost2010Prop51ColorIndex
 90
      256
102
RTVSPost2010Prop51ColorRGB
 90
-16777216
102
RTVSPost2010PropOp51
 70
     0
102
RTVSPost2010Prop52
140
1.0
102
RTVSPost2010PropOp52
 70
     0
102
RTVSPost2010Prop53
 90
        2
102
RTVSPost2010PropOp53
 70
     1
102
RTVSPost2010Prop54
  1
strokes_ogs.tif
102
RTVSPost2010PropOp54
 70
     1
102
RTVSPost2010Prop55
280
     0
102
RTVSPost2010PropOp55
 70
     1
102
RTVSPost2010Prop56
140
1.0
102
RTVSPost2010PropOp56
 70
     1
102
RTVSPost2010Prop57
140
1.0
102
RTVSPost2010PropOp57
 70
     1
102
RTVSPropertyOp0
 70
     1
102
RTVSPropertyOp1
 70
     1
102
RTVSPropertyOp2
 70
     1
102
RTVSPropertyOp3
 70
     1
102
RTVSPropertyOp4
 70
     1
102
RTVSPropertyOp5
 70
     1
102
RTVSPropertyOp6
 70
     1
102
RTVSPropertyOp7
 70
     1
102
RTVSPropertyOp8
 70
     1
102
RTVSPropertyOp9
 70
     1
102
RTVSPropertyOp10
 70
     1
102
RTVSPropertyOp11
 70
     1
102
RTVSPropertyOp12
 70
     1
102
RTVSPropertyOp13
 70
     1
102
RTVSPropertyOp14
 70
     1
102
RTVSPropertyOp15
 70
     1
102
RTVSPropertyOp16
 70
     1
102
RTVSPropertyOp17
 70
     1
102
RTVSPropertyOp18
 70
     1
102
RTVSPropertyOp19
 70
     1
102
RTVSPropertyOp20
 70
     1
102
RTVSPropertyOp21
 70
     1
102
RTVSPropertyOp22
 70
     1
102
RTVSPropertyOp23
 70
     1
102
RTVSPropertyOp24
 70
     1
102
RTVSPropertyOp25
 70
     1
102
RTVSPropertyOp26
 70
     1
102
RTVSPropertyOp27
 70
     1
102
RTVSPropertyOp28
 70
     1
102
RTVSPropertyOp29
 70
     1
102
RTVSPropertyOp30
 70
     1
102
RTVSPropertyOp31
 70
     1
102
RTVSPropertyOp32
 70
     1
102
RTVSPropertyOp33
 70
     1
102
RTVSPropertyOp34
 70
     1
102
RTVSPropertyOp35
 70
     1
102
RTVSPropertyOp36
 70
     1
102
RTVSPropertyOp37
 70
     1
102
RTVSPropertyOp38
 70
     1
102
RTVSPropertyOp39
 70
     1
102
RTVSPropertyOp40
 70
     1
102
RTVSPropertyOp41
 70
     1
102
RTVSPropertyOp42
 70
     1
102
RTVSPropertyOp43
 70
     1
102
RTVSPropertyOp44
 70
     1
102
RTVSPropertyOp45
 70
     1
102
RTVSPropertyOp46
 70
     1
102
RTVSPropertyOp47
 70
     1
102
RTVSPropertyOp48
 70
     1
102
RTVSPropertyOp49
 70
     1
102
RTVSPropertyOp50
 70
     1
102
RTVSPropertyOp51
 70
     0
102
RTVSPropertyOp52
 70
     0
102
RTVSPropertyOp53
 70
     1
102
RTVSPropertyOp54
 70
     1
102
RTVSPropertyOp55
 70
     1
102
RTVSPropertyOp56
 70
     1
102
RTVSPropertyOp57
 70
     1
102
RTVSPropertyOp58
 70
     1
102
RTVSPropertyOp59
 70
     1
102
RTVSPropertyOp60
 70
     1
102
RTVSPropertyOp61
 70
     1
102
RTVSPropertyOp62
 70
     1
  0
XRECORD
  5
718
102
{ACAD_REACTORS
330
717
102
}
330
717
100
AcDbXrecord
280
     1
102
RTVSPost2010Prop28
280
     0
102
RTVSPost2010PropOp28
 70
     1
102
RTVSPost2010Prop29
280
     1
102
RTVSPost2010PropOp29
 70
     1
102
RTVSPost2010Prop30
280
     1
102
RTVSPost2010PropOp30
 70
     1
102
RTVSPost2010Prop31
280
     0
102
RTVSPost2010PropOp31
 70
     1
102
RTVSPost2010Prop32
280
     0
102
RTVSPost2010PropOp32
 70
     1
102
RTVSPost2010Prop33
280
     0
102
RTVSPost2010PropOp33
 70
     1
102
RTVSPost2010Prop34
280
     0
102
RTVSPost2010PropOp34
 70
     1
102
RTVSPost2010Prop35
280
     0
102
RTVSPost2010PropOp35
 70
     1
102
RTVSPost2010Prop36
280
     0
102
RTVSPost2010PropOp36
 70
     1
102
RTVSPost2010Prop37
 90
       50
102
RTVSPost2010PropOp37
 70
     1
102
RTVSPost2010Prop38
140
0.0
102
RTVSPost2010PropOp38
 70
     1
102
RTVSPost2010Prop39
140
1.0
102
RTVSPost2010PropOp39
 70
     1
102
RTVSPost2010Prop40
 90
        0
102
RTVSPost2010PropOp40
 70
     1
102
RTVSPost2010Prop41ColorIndex
 90
       18
102
RTVSPost2010Prop41ColorRGB
 90
        0
102
RTVSPost2010PropOp41
 70
     1
102
RTVSPost2010Prop42
 90
       50
102
RTVSPost2010PropOp42
 70
     1
102
RTVSPost2010Prop43
 90
        3
102
RTVSPost2010PropOp43
 70
     1
102
RTVSPost2010Prop44ColorIndex
 90
        5
102
RTVSPost2010Prop44ColorRGB
 90
      255
102
RTVSPost2010PropOp44
 70
     1
102
RTVSPost2010Prop45
280
     0
102
RTVSPost2010PropOp45
 70
     1
102
RTVSPost2010Prop46
 90
       50
102
RTVSPost2010PropOp46
 70
     1
102
RTVSPost2010Prop47
 90
       50
102
RTVSPost2010PropOp47
 70
     1
102
RTVSPost2010Prop48
 90
       50
102
RTVSPost2010PropOp48
 70
     1
102
RTVSPost2010Prop49
280
     0
102
RTVSPost2010PropOp49
 70
     1
102
RTVSPost2010Prop50
 90
       50
102
RTVSPost2010PropOp50
 70
     1
102
RTVSPost2010Prop51ColorIndex
 90
      256
102
RTVSPost2010Prop51ColorRGB
 90
-16777216
102
RTVSPost2010PropOp51
 70
     0
102
RTVSPost2010Prop52
140
1.0
102
RTVSPost2010PropOp52
 70
     0
102
RTVSPost2010Prop53
 90
        2
102
RTVSPost2010PropOp53
 70
     1
102
RTVSPost2010Prop54
  1
strokes_ogs.tif
102
RTVSPost2010PropOp54
 70
     1
102
RTVSPost2010Prop55
280
     0
102
RTVSPost2010PropOp55
 70
     1
102
RTVSPost2010Prop56
140
1.0
102
RTVSPost2010PropOp56
 70
     1
102
RTVSPost2010Prop57
140
1.0
102
RTVSPost2010PropOp57
 70
     1
102
RTVSPropertyOp0
 70
     1
102
RTVSPropertyOp1
 70
     1
102
RTVSPropertyOp2
 70
     1
102
RTVSPropertyOp3
 70
     1
102
RTVSPropertyOp4
 70
     1
102
RTVSPropertyOp5
 70
     1
102
RTVSPropertyOp6
 70
     1
102
RTVSPropertyOp7
 70
     1
102
RTVSPropertyOp8
 70
     1
102
RTVSPropertyOp9
 70
     1
102
RTVSPropertyOp10
 70
     1
102
RTVSPropertyOp11
 70
     1
102
RTVSPropertyOp12
 70
     1
102
RTVSPropertyOp13
 70
     1
102
RTVSPropertyOp14
 70
     1
102
RTVSPropertyOp15
 70
     1
102
RTVSPropertyOp16
 70
     1
102
RTVSPropertyOp17
 70
     1
102
RTVSPropertyOp18
 70
     1
102
RTVSPropertyOp19
 70
     1
102
RTVSPropertyOp20
 70
     1
102
RTVSPropertyOp21
 70
     1
102
RTVSPropertyOp22
 70
     1
102
RTVSPropertyOp23
 70
     1
102
RTVSPropertyOp24
 70
     1
102
RTVSPropertyOp25
 70
     1
102
RTVSPropertyOp26
 70
     1
102
RTVSPropertyOp27
 70
     1
102
RTVSPropertyOp28
 70
     1
102
RTVSPropertyOp29
 70
     1
102
RTVSPropertyOp30
 70
     1
102
RTVSPropertyOp31
 70
     1
102
RTVSPropertyOp32
 70
     1
102
RTVSPropertyOp33
 70
     1
102
RTVSPropertyOp34
 70
     1
102
RTVSPropertyOp35
 70
     1
102
RTVSPropertyOp36
 70
     1
102
RTVSPropertyOp37
 70
     1
102
RTVSPropertyOp38
 70
     1
102
RTVSPropertyOp39
 70
     1
102
RTVSPropertyOp40
 70
     1
102
RTVSPropertyOp41
 70
     1
102
RTVSPropertyOp42
 70
     1
102
RTVSPropertyOp43
 70
     1
102
RTVSPropertyOp44
 70
     1
102
RTVSPropertyOp45
 70
     1
102
RTVSPropertyOp46
 70
     1
102
RTVSPropertyOp47
 70
     1
102
RTVSPropertyOp48
 70
     1
102
RTVSPropertyOp49
 70
     1
102
RTVSPropertyOp50
 70
     1
102
RTVSPropertyOp51
 70
     0
102
RTVSPropertyOp52
 70
     0
102
RTVSPropertyOp53
 70
     1
102
RTVSPropertyOp54
 70
     1
102
RTVSPropertyOp55
 70
     1
102
RTVSPropertyOp56
 70
     1
102
RTVSPropertyOp57
 70
     1
102
RTVSPropertyOp58
 70
     1
102
RTVSPropertyOp59
 70
     1
102
RTVSPropertyOp60
 70
     1
102
RTVSPropertyOp61
 70
     1
102
RTVSPropertyOp62
 70
     1
  0
XRECORD
  5
716
102
{ACAD_REACTORS
330
715
102
}
330
715
100
AcDbXrecord
280
     1
102
RTVSPost2010Prop28
280
     0
102
RTVSPost2010PropOp28
 70
     1
102
RTVSPost2010Prop29
280
     1
102
RTVSPost2010PropOp29
 70
     1
102
RTVSPost2010Prop30
280
     1
102
RTVSPost2010PropOp30
 70
     1
102
RTVSPost2010Prop31
280
     0
102
RTVSPost2010PropOp31
 70
     1
102
RTVSPost2010Prop32
280
     0
102
RTVSPost2010PropOp32
 70
     1
102
RTVSPost2010Prop33
280
     0
102
RTVSPost2010PropOp33
 70
     1
102
RTVSPost2010Prop34
280
     0
102
RTVSPost2010PropOp34
 70
     1
102
RTVSPost2010Prop35
280
     0
102
RTVSPost2010PropOp35
 70
     1
102
RTVSPost2010Prop36
280
     0
102
RTVSPost2010PropOp36
 70
     1
102
RTVSPost2010Prop37
 90
       50
102
RTVSPost2010PropOp37
 70
     1
102
RTVSPost2010Prop38
140
0.0
102
RTVSPost2010PropOp38
 70
     1
102
RTVSPost2010Prop39
140
1.0
102
RTVSPost2010PropOp39
 70
     1
102
RTVSPost2010Prop40
 90
        0
102
RTVSPost2010PropOp40
 70
     1
102
RTVSPost2010Prop41ColorIndex
 90
       18
102
RTVSPost2010Prop41ColorRGB
 90
        0
102
RTVSPost2010PropOp41
 70
     1
102
RTVSPost2010Prop42
 90
       50
102
RTVSPost2010PropOp42
 70
     1
102
RTVSPost2010Prop43
 90
        3
102
RTVSPost2010PropOp43
 70
     1
102
RTVSPost2010Prop44ColorIndex
 90
        5
102
RTVSPost2010Prop44ColorRGB
 90
      255
102
RTVSPost2010PropOp44
 70
     1
102
RTVSPost2010Prop45
280
     0
102
RTVSPost2010PropOp45
 70
     1
102
RTVSPost2010Prop46
 90
       50
102
RTVSPost2010PropOp46
 70
     1
102
RTVSPost2010Prop47
 90
       50
102
RTVSPost2010PropOp47
 70
     1
102
RTVSPost2010Prop48
 90
       50
102
RTVSPost2010PropOp48
 70
     1
102
RTVSPost2010Prop49
280
     0
102
RTVSPost2010PropOp49
 70
     1
102
RTVSPost2010Prop50
 90
       50
102
RTVSPost2010PropOp50
 70
     1
102
RTVSPost2010Prop51ColorIndex
 90
      256
102
RTVSPost2010Prop51ColorRGB
 90
-16777216
102
RTVSPost2010PropOp51
 70
     0
102
RTVSPost2010Prop52
140
1.0
102
RTVSPost2010PropOp52
 70
     0
102
RTVSPost2010Prop53
 90
        2
102
RTVSPost2010PropOp53
 70
     1
102
RTVSPost2010Prop54
  1
strokes_ogs.tif
102
RTVSPost2010PropOp54
 70
     1
102
RTVSPost2010Prop55
280
     0
102
RTVSPost2010PropOp55
 70
     1
102
RTVSPost2010Prop56
140
1.0
102
RTVSPost2010PropOp56
 70
     1
102
RTVSPost2010Prop57
140
1.0
102
RTVSPost2010PropOp57
 70
     1
102
RTVSPropertyOp0
 70
     1
102
RTVSPropertyOp1
 70
     1
102
RTVSPropertyOp2
 70
     1
102
RTVSPropertyOp3
 70
     1
102
RTVSPropertyOp4
 70
     1
102
RTVSPropertyOp5
 70
     1
102
RTVSPropertyOp6
 70
     1
102
RTVSPropertyOp7
 70
     1
102
RTVSPropertyOp8
 70
     1
102
RTVSPropertyOp9
 70
     1
102
RTVSPropertyOp10
 70
     1
102
RTVSPropertyOp11
 70
     1
102
RTVSPropertyOp12
 70
     1
102
RTVSPropertyOp13
 70
     1
102
RTVSPropertyOp14
 70
     1
102
RTVSPropertyOp15
 70
     1
102
RTVSPropertyOp16
 70
     1
102
RTVSPropertyOp17
 70
     1
102
RTVSPropertyOp18
 70
     1
102
RTVSPropertyOp19
 70
     1
102
RTVSPropertyOp20
 70
     1
102
RTVSPropertyOp21
 70
     1
102
RTVSPropertyOp22
 70
     1
102
RTVSPropertyOp23
 70
     1
102
RTVSPropertyOp24
 70
     1
102
RTVSPropertyOp25
 70
     1
102
RTVSPropertyOp26
 70
     1
102
RTVSPropertyOp27
 70
     1
102
RTVSPropertyOp28
 70
     1
102
RTVSPropertyOp29
 70
     1
102
RTVSPropertyOp30
 70
     1
102
RTVSPropertyOp31
 70
     1
102
RTVSPropertyOp32
 70
     1
102
RTVSPropertyOp33
 70
     1
102
RTVSPropertyOp34
 70
     1
102
RTVSPropertyOp35
 70
     1
102
RTVSPropertyOp36
 70
     1
102
RTVSPropertyOp37
 70
     1
102
RTVSPropertyOp38
 70
     1
102
RTVSPropertyOp39
 70
     1
102
RTVSPropertyOp40
 70
     1
102
RTVSPropertyOp41
 70
     1
102
RTVSPropertyOp42
 70
     1
102
RTVSPropertyOp43
 70
     1
102
RTVSPropertyOp44
 70
     1
102
RTVSPropertyOp45
 70
     1
102
RTVSPropertyOp46
 70
     1
102
RTVSPropertyOp47
 70
     1
102
RTVSPropertyOp48
 70
     1
102
RTVSPropertyOp49
 70
     1
102
RTVSPropertyOp50
 70
     1
102
RTVSPropertyOp51
 70
     0
102
RTVSPropertyOp52
 70
     0
102
RTVSPropertyOp53
 70
     1
102
RTVSPropertyOp54
 70
     1
102
RTVSPropertyOp55
 70
     1
102
RTVSPropertyOp56
 70
     1
102
RTVSPropertyOp57
 70
     1
102
RTVSPropertyOp58
 70
     1
102
RTVSPropertyOp59
 70
     1
102
RTVSPropertyOp60
 70
     1
102
RTVSPropertyOp61
 70
     1
102
RTVSPropertyOp62
 70
     1
  0
XRECORD
  5
710
102
{ACAD_REACTORS
330
70F
102
}
330
70F
100
AcDbXrecord
280
     1
102
RTVSPost2010Prop28
280
     0
102
RTVSPost2010PropOp28
 70
     1
102
RTVSPost2010Prop29
280
     1
102
RTVSPost2010PropOp29
 70
     1
102
RTVSPost2010Prop30
280
     1
102
RTVSPost2010PropOp30
 70
     1
102
RTVSPost2010Prop31
280
     0
102
RTVSPost2010PropOp31
 70
     1
102
RTVSPost2010Prop32
280
     0
102
RTVSPost2010PropOp32
 70
     1
102
RTVSPost2010Prop33
280
     0
102
RTVSPost2010PropOp33
 70
     1
102
RTVSPost2010Prop34
280
     0
102
RTVSPost2010PropOp34
 70
     1
102
RTVSPost2010Prop35
280
     0
102
RTVSPost2010PropOp35
 70
     1
102
RTVSPost2010Prop36
280
     0
102
RTVSPost2010PropOp36
 70
     1
102
RTVSPost2010Prop37
 90
       50
102
RTVSPost2010PropOp37
 70
     1
102
RTVSPost2010Prop38
140
0.0
102
RTVSPost2010PropOp38
 70
     1
102
RTVSPost2010Prop39
140
1.0
102
RTVSPost2010PropOp39
 70
     1
102
RTVSPost2010Prop40
 90
        0
102
RTVSPost2010PropOp40
 70
     1
102
RTVSPost2010Prop41ColorIndex
 90
       18
102
RTVSPost2010Prop41ColorRGB
 90
        0
102
RTVSPost2010PropOp41
 70
     1
102
RTVSPost2010Prop42
 90
       50
102
RTVSPost2010PropOp42
 70
     1
102
RTVSPost2010Prop43
 90
        3
102
RTVSPost2010PropOp43
 70
     1
102
RTVSPost2010Prop44ColorIndex
 90
        5
102
RTVSPost2010Prop44ColorRGB
 90
      255
102
RTVSPost2010PropOp44
 70
     1
102
RTVSPost2010Prop45
280
     0
102
RTVSPost2010PropOp45
 70
     1
102
RTVSPost2010Prop46
 90
       50
102
RTVSPost2010PropOp46
 70
     1
102
RTVSPost2010Prop47
 90
       50
102
RTVSPost2010PropOp47
 70
     1
102
RTVSPost2010Prop48
 90
       50
102
RTVSPost2010PropOp48
 70
     1
102
RTVSPost2010Prop49
280
     0
102
RTVSPost2010PropOp49
 70
     1
102
RTVSPost2010Prop50
 90
       50
102
RTVSPost2010PropOp50
 70
     1
102
RTVSPost2010Prop51ColorIndex
 90
      256
102
RTVSPost2010Prop51ColorRGB
 90
-16777216
102
RTVSPost2010PropOp51
 70
     0
102
RTVSPost2010Prop52
140
1.0
102
RTVSPost2010PropOp52
 70
     0
102
RTVSPost2010Prop53
 90
        2
102
RTVSPost2010PropOp53
 70
     1
102
RTVSPost2010Prop54
  1
strokes_ogs.tif
102
RTVSPost2010PropOp54
 70
     1
102
RTVSPost2010Prop55
280
     0
102
RTVSPost2010PropOp55
 70
     1
102
RTVSPost2010Prop56
140
1.0
102
RTVSPost2010PropOp56
 70
     1
102
RTVSPost2010Prop57
140
1.0
102
RTVSPost2010PropOp57
 70
     1
102
RTVSPropertyOp0
 70
     1
102
RTVSPropertyOp1
 70
     1
102
RTVSPropertyOp2
 70
     1
102
RTVSPropertyOp3
 70
     1
102
RTVSPropertyOp4
 70
     1
102
RTVSPropertyOp5
 70
     1
102
RTVSPropertyOp6
 70
     1
102
RTVSPropertyOp7
 70
     1
102
RTVSPropertyOp8
 70
     1
102
RTVSPropertyOp9
 70
     1
102
RTVSPropertyOp10
 70
     1
102
RTVSPropertyOp11
 70
     1
102
RTVSPropertyOp12
 70
     1
102
RTVSPropertyOp13
 70
     1
102
RTVSPropertyOp14
 70
     1
102
RTVSPropertyOp15
 70
     1
102
RTVSPropertyOp16
 70
     1
102
RTVSPropertyOp17
 70
     1
102
RTVSPropertyOp18
 70
     1
102
RTVSPropertyOp19
 70
     1
102
RTVSPropertyOp20
 70
     1
102
RTVSPropertyOp21
 70
     1
102
RTVSPropertyOp22
 70
     1
102
RTVSPropertyOp23
 70
     1
102
RTVSPropertyOp24
 70
     1
102
RTVSPropertyOp25
 70
     1
102
RTVSPropertyOp26
 70
     1
102
RTVSPropertyOp27
 70
     1
102
RTVSPropertyOp28
 70
     1
102
RTVSPropertyOp29
 70
     1
102
RTVSPropertyOp30
 70
     1
102
RTVSPropertyOp31
 70
     1
102
RTVSPropertyOp32
 70
     1
102
RTVSPropertyOp33
 70
     1
102
RTVSPropertyOp34
 70
     1
102
RTVSPropertyOp35
 70
     1
102
RTVSPropertyOp36
 70
     1
102
RTVSPropertyOp37
 70
     1
102
RTVSPropertyOp38
 70
     1
102
RTVSPropertyOp39
 70
     1
102
RTVSPropertyOp40
 70
     1
102
RTVSPropertyOp41
 70
     1
102
RTVSPropertyOp42
 70
     1
102
RTVSPropertyOp43
 70
     1
102
RTVSPropertyOp44
 70
     1
102
RTVSPropertyOp45
 70
     1
102
RTVSPropertyOp46
 70
     1
102
RTVSPropertyOp47
 70
     1
102
RTVSPropertyOp48
 70
     1
102
RTVSPropertyOp49
 70
     1
102
RTVSPropertyOp50
 70
     1
102
RTVSPropertyOp51
 70
     0
102
RTVSPropertyOp52
 70
     0
102
RTVSPropertyOp53
 70
     1
102
RTVSPropertyOp54
 70
     1
102
RTVSPropertyOp55
 70
     1
102
RTVSPropertyOp56
 70
     1
102
RTVSPropertyOp57
 70
     1
102
RTVSPropertyOp58
 70
     1
102
RTVSPropertyOp59
 70
     1
102
RTVSPropertyOp60
 70
     1
102
RTVSPropertyOp61
 70
     1
102
RTVSPropertyOp62
 70
     1
  0
XRECORD
  5
712
102
{ACAD_REACTORS
330
711
102
}
330
711
100
AcDbXrecord
280
     1
102
RTVSPost2010Prop28
280
     0
102
RTVSPost2010PropOp28
 70
     1
102
RTVSPost2010Prop29
280
     1
102
RTVSPost2010PropOp29
 70
     1
102
RTVSPost2010Prop30
280
     1
102
RTVSPost2010PropOp30
 70
     1
102
RTVSPost2010Prop31
280
     0
102
RTVSPost2010PropOp31
 70
     1
102
RTVSPost2010Prop32
280
     0
102
RTVSPost2010PropOp32
 70
     1
102
RTVSPost2010Prop33
280
     0
102
RTVSPost2010PropOp33
 70
     1
102
RTVSPost2010Prop34
280
     0
102
RTVSPost2010PropOp34
 70
     1
102
RTVSPost2010Prop35
280
     0
102
RTVSPost2010PropOp35
 70
     1
102
RTVSPost2010Prop36
280
     0
102
RTVSPost2010PropOp36
 70
     1
102
RTVSPost2010Prop37
 90
       50
102
RTVSPost2010PropOp37
 70
     1
102
RTVSPost2010Prop38
140
0.0
102
RTVSPost2010PropOp38
 70
     1
102
RTVSPost2010Prop39
140
1.0
102
RTVSPost2010PropOp39
 70
     1
102
RTVSPost2010Prop40
 90
        0
102
RTVSPost2010PropOp40
 70
     1
102
RTVSPost2010Prop41ColorIndex
 90
       18
102
RTVSPost2010Prop41ColorRGB
 90
        0
102
RTVSPost2010PropOp41
 70
     1
102
RTVSPost2010Prop42
 90
       50
102
RTVSPost2010PropOp42
 70
     1
102
RTVSPost2010Prop43
 90
        3
102
RTVSPost2010PropOp43
 70
     1
102
RTVSPost2010Prop44ColorIndex
 90
        5
102
RTVSPost2010Prop44ColorRGB
 90
      255
102
RTVSPost2010PropOp44
 70
     1
102
RTVSPost2010Prop45
280
     0
102
RTVSPost2010PropOp45
 70
     1
102
RTVSPost2010Prop46
 90
       50
102
RTVSPost2010PropOp46
 70
     1
102
RTVSPost2010Prop47
 90
       50
102
RTVSPost2010PropOp47
 70
     1
102
RTVSPost2010Prop48
 90
       50
102
RTVSPost2010PropOp48
 70
     1
102
RTVSPost2010Prop49
280
     0
102
RTVSPost2010PropOp49
 70
     1
102
RTVSPost2010Prop50
 90
       50
102
RTVSPost2010PropOp50
 70
     1
102
RTVSPost2010Prop51ColorIndex
 90
      256
102
RTVSPost2010Prop51ColorRGB
 90
-16777216
102
RTVSPost2010PropOp51
 70
     0
102
RTVSPost2010Prop52
140
1.0
102
RTVSPost2010PropOp52
 70
     0
102
RTVSPost2010Prop53
 90
        2
102
RTVSPost2010PropOp53
 70
     1
102
RTVSPost2010Prop54
  1
strokes_ogs.tif
102
RTVSPost2010PropOp54
 70
     1
102
RTVSPost2010Prop55
280
     0
102
RTVSPost2010PropOp55
 70
     1
102
RTVSPost2010Prop56
140
1.0
102
RTVSPost2010PropOp56
 70
     1
102
RTVSPost2010Prop57
140
1.0
102
RTVSPost2010PropOp57
 70
     1
102
RTVSPropertyOp0
 70
     1
102
RTVSPropertyOp1
 70
     1
102
RTVSPropertyOp2
 70
     1
102
RTVSPropertyOp3
 70
     1
102
RTVSPropertyOp4
 70
     1
102
RTVSPropertyOp5
 70
     1
102
RTVSPropertyOp6
 70
     1
102
RTVSPropertyOp7
 70
     1
102
RTVSPropertyOp8
 70
     1
102
RTVSPropertyOp9
 70
     1
102
RTVSPropertyOp10
 70
     1
102
RTVSPropertyOp11
 70
     1
102
RTVSPropertyOp12
 70
     1
102
RTVSPropertyOp13
 70
     1
102
RTVSPropertyOp14
 70
     1
102
RTVSPropertyOp15
 70
     1
102
RTVSPropertyOp16
 70
     1
102
RTVSPropertyOp17
 70
     1
102
RTVSPropertyOp18
 70
     1
102
RTVSPropertyOp19
 70
     1
102
RTVSPropertyOp20
 70
     1
102
RTVSPropertyOp21
 70
     1
102
RTVSPropertyOp22
 70
     1
102
RTVSPropertyOp23
 70
     1
102
RTVSPropertyOp24
 70
     1
102
RTVSPropertyOp25
 70
     1
102
RTVSPropertyOp26
 70
     1
102
RTVSPropertyOp27
 70
     1
102
RTVSPropertyOp28
 70
     1
102
RTVSPropertyOp29
 70
     1
102
RTVSPropertyOp30
 70
     1
102
RTVSPropertyOp31
 70
     1
102
RTVSPropertyOp32
 70
     1
102
RTVSPropertyOp33
 70
     1
102
RTVSPropertyOp34
 70
     1
102
RTVSPropertyOp35
 70
     1
102
RTVSPropertyOp36
 70
     1
102
RTVSPropertyOp37
 70
     1
102
RTVSPropertyOp38
 70
     1
102
RTVSPropertyOp39
 70
     1
102
RTVSPropertyOp40
 70
     1
102
RTVSPropertyOp41
 70
     1
102
RTVSPropertyOp42
 70
     1
102
RTVSPropertyOp43
 70
     1
102
RTVSPropertyOp44
 70
     1
102
RTVSPropertyOp45
 70
     1
102
RTVSPropertyOp46
 70
     1
102
RTVSPropertyOp47
 70
     1
102
RTVSPropertyOp48
 70
     1
102
RTVSPropertyOp49
 70
     1
102
RTVSPropertyOp50
 70
     1
102
RTVSPropertyOp51
 70
     0
102
RTVSPropertyOp52
 70
     0
102
RTVSPropertyOp53
 70
     1
102
RTVSPropertyOp54
 70
     1
102
RTVSPropertyOp55
 70
     1
102
RTVSPropertyOp56
 70
     1
102
RTVSPropertyOp57
 70
     1
102
RTVSPropertyOp58
 70
     1
102
RTVSPropertyOp59
 70
     1
102
RTVSPropertyOp60
 70
     1
102
RTVSPropertyOp61
 70
     1
102
RTVSPropertyOp62
 70
     1
  0
XRECORD
  5
708
102
{ACAD_REACTORS
330
707
102
}
330
707
100
AcDbXrecord
280
     1
102
RTVSPost2010Prop28
280
     0
102
RTVSPost2010PropOp28
 70
     1
102
RTVSPost2010Prop29
280
     1
102
RTVSPost2010PropOp29
 70
     1
102
RTVSPost2010Prop30
280
     1
102
RTVSPost2010PropOp30
 70
     1
102
RTVSPost2010Prop31
280
     0
102
RTVSPost2010PropOp31
 70
     1
102
RTVSPost2010Prop32
280
     0
102
RTVSPost2010PropOp32
 70
     1
102
RTVSPost2010Prop33
280
     0
102
RTVSPost2010PropOp33
 70
     1
102
RTVSPost2010Prop34
280
     0
102
RTVSPost2010PropOp34
 70
     1
102
RTVSPost2010Prop35
280
     0
102
RTVSPost2010PropOp35
 70
     1
102
RTVSPost2010Prop36
280
     0
102
RTVSPost2010PropOp36
 70
     1
102
RTVSPost2010Prop37
 90
       50
102
RTVSPost2010PropOp37
 70
     1
102
RTVSPost2010Prop38
140
0.0
102
RTVSPost2010PropOp38
 70
     1
102
RTVSPost2010Prop39
140
1.0
102
RTVSPost2010PropOp39
 70
     1
102
RTVSPost2010Prop40
 90
        0
102
RTVSPost2010PropOp40
 70
     1
102
RTVSPost2010Prop41ColorIndex
 90
       18
102
RTVSPost2010Prop41ColorRGB
 90
        0
102
RTVSPost2010PropOp41
 70
     1
102
RTVSPost2010Prop42
 90
       50
102
RTVSPost2010PropOp42
 70
     1
102
RTVSPost2010Prop43
 90
        3
102
RTVSPost2010PropOp43
 70
     1
102
RTVSPost2010Prop44ColorIndex
 90
        5
102
RTVSPost2010Prop44ColorRGB
 90
      255
102
RTVSPost2010PropOp44
 70
     1
102
RTVSPost2010Prop45
280
     0
102
RTVSPost2010PropOp45
 70
     1
102
RTVSPost2010Prop46
 90
       50
102
RTVSPost2010PropOp46
 70
     1
102
RTVSPost2010Prop47
 90
       50
102
RTVSPost2010PropOp47
 70
     1
102
RTVSPost2010Prop48
 90
       50
102
RTVSPost2010PropOp48
 70
     1
102
RTVSPost2010Prop49
280
     0
102
RTVSPost2010PropOp49
 70
     1
102
RTVSPost2010Prop50
 90
       50
102
RTVSPost2010PropOp50
 70
     1
102
RTVSPost2010Prop51ColorIndex
 90
      256
102
RTVSPost2010Prop51ColorRGB
 90
-16777216
102
RTVSPost2010PropOp51
 70
     0
102
RTVSPost2010Prop52
140
1.0
102
RTVSPost2010PropOp52
 70
     0
102
RTVSPost2010Prop53
 90
        2
102
RTVSPost2010PropOp53
 70
     1
102
RTVSPost2010Prop54
  1
strokes_ogs.tif
102
RTVSPost2010PropOp54
 70
     1
102
RTVSPost2010Prop55
280
     0
102
RTVSPost2010PropOp55
 70
     1
102
RTVSPost2010Prop56
140
1.0
102
RTVSPost2010PropOp56
 70
     1
102
RTVSPost2010Prop57
140
1.0
102
RTVSPost2010PropOp57
 70
     1
102
RTVSPropertyOp0
 70
     1
102
RTVSPropertyOp1
 70
     1
102
RTVSPropertyOp2
 70
     1
102
RTVSPropertyOp3
 70
     1
102
RTVSPropertyOp4
 70
     1
102
RTVSPropertyOp5
 70
     1
102
RTVSPropertyOp6
 70
     1
102
RTVSPropertyOp7
 70
     1
102
RTVSPropertyOp8
 70
     1
102
RTVSPropertyOp9
 70
     1
102
RTVSPropertyOp10
 70
     1
102
RTVSPropertyOp11
 70
     1
102
RTVSPropertyOp12
 70
     1
102
RTVSPropertyOp13
 70
     1
102
RTVSPropertyOp14
 70
     1
102
RTVSPropertyOp15
 70
     1
102
RTVSPropertyOp16
 70
     1
102
RTVSPropertyOp17
 70
     1
102
RTVSPropertyOp18
 70
     1
102
RTVSPropertyOp19
 70
     1
102
RTVSPropertyOp20
 70
     1
102
RTVSPropertyOp21
 70
     1
102
RTVSPropertyOp22
 70
     1
102
RTVSPropertyOp23
 70
     1
102
RTVSPropertyOp24
 70
     1
102
RTVSPropertyOp25
 70
     1
102
RTVSPropertyOp26
 70
     1
102
RTVSPropertyOp27
 70
     1
102
RTVSPropertyOp28
 70
     1
102
RTVSPropertyOp29
 70
     1
102
RTVSPropertyOp30
 70
     1
102
RTVSPropertyOp31
 70
     1
102
RTVSPropertyOp32
 70
     1
102
RTVSPropertyOp33
 70
     1
102
RTVSPropertyOp34
 70
     1
102
RTVSPropertyOp35
 70
     1
102
RTVSPropertyOp36
 70
     1
102
RTVSPropertyOp37
 70
     1
102
RTVSPropertyOp38
 70
     1
102
RTVSPropertyOp39
 70
     1
102
RTVSPropertyOp40
 70
     1
102
RTVSPropertyOp41
 70
     1
102
RTVSPropertyOp42
 70
     1
102
RTVSPropertyOp43
 70
     1
102
RTVSPropertyOp44
 70
     1
102
RTVSPropertyOp45
 70
     1
102
RTVSPropertyOp46
 70
     1
102
RTVSPropertyOp47
 70
     1
102
RTVSPropertyOp48
 70
     1
102
RTVSPropertyOp49
 70
     1
102
RTVSPropertyOp50
 70
     1
102
RTVSPropertyOp51
 70
     0
102
RTVSPropertyOp52
 70
     0
102
RTVSPropertyOp53
 70
     1
102
RTVSPropertyOp54
 70
     1
102
RTVSPropertyOp55
 70
     1
102
RTVSPropertyOp56
 70
     1
102
RTVSPropertyOp57
 70
     1
102
RTVSPropertyOp58
 70
     1
102
RTVSPropertyOp59
 70
     1
102
RTVSPropertyOp60
 70
     1
102
RTVSPropertyOp61
 70
     1
102
RTVSPropertyOp62
 70
     1
  0
XRECORD
  5
6FC
102
{ACAD_REACTORS
330
6FB
102
}
330
6FB
100
AcDbXrecord
280
     1
102
RTVSPost2010Prop28
280
     0
102
RTVSPost2010PropOp28
 70
     1
102
RTVSPost2010Prop29
280
     1
102
RTVSPost2010PropOp29
 70
     1
102
RTVSPost2010Prop30
280
     1
102
RTVSPost2010PropOp30
 70
     1
102
RTVSPost2010Prop31
280
     0
102
RTVSPost2010PropOp31
 70
     1
102
RTVSPost2010Prop32
280
     0
102
RTVSPost2010PropOp32
 70
     1
102
RTVSPost2010Prop33
280
     0
102
RTVSPost2010PropOp33
 70
     1
102
RTVSPost2010Prop34
280
     0
102
RTVSPost2010PropOp34
 70
     1
102
RTVSPost2010Prop35
280
     0
102
RTVSPost2010PropOp35
 70
     1
102
RTVSPost2010Prop36
280
     0
102
RTVSPost2010PropOp36
 70
     1
102
RTVSPost2010Prop37
 90
       50
102
RTVSPost2010PropOp37
 70
     1
102
RTVSPost2010Prop38
140
0.0
102
RTVSPost2010PropOp38
 70
     1
102
RTVSPost2010Prop39
140
1.0
102
RTVSPost2010PropOp39
 70
     1
102
RTVSPost2010Prop40
 90
        0
102
RTVSPost2010PropOp40
 70
     1
102
RTVSPost2010Prop41ColorIndex
 90
       18
102
RTVSPost2010Prop41ColorRGB
 90
        0
102
RTVSPost2010PropOp41
 70
     1
102
RTVSPost2010Prop42
 90
       50
102
RTVSPost2010PropOp42
 70
     1
102
RTVSPost2010Prop43
 90
        3
102
RTVSPost2010PropOp43
 70
     1
102
RTVSPost2010Prop44ColorIndex
 90
        5
102
RTVSPost2010Prop44ColorRGB
 90
      255
102
RTVSPost2010PropOp44
 70
     1
102
RTVSPost2010Prop45
280
     0
102
RTVSPost2010PropOp45
 70
     1
102
RTVSPost2010Prop46
 90
       50
102
RTVSPost2010PropOp46
 70
     1
102
RTVSPost2010Prop47
 90
       50
102
RTVSPost2010PropOp47
 70
     1
102
RTVSPost2010Prop48
 90
       50
102
RTVSPost2010PropOp48
 70
     1
102
RTVSPost2010Prop49
280
     0
102
RTVSPost2010PropOp49
 70
     1
102
RTVSPost2010Prop50
 90
       50
102
RTVSPost2010PropOp50
 70
     1
102
RTVSPost2010Prop51ColorIndex
 90
      256
102
RTVSPost2010Prop51ColorRGB
 90
-16777216
102
RTVSPost2010PropOp51
 70
     0
102
RTVSPost2010Prop52
140
1.0
102
RTVSPost2010PropOp52
 70
     0
102
RTVSPost2010Prop53
 90
        2
102
RTVSPost2010PropOp53
 70
     1
102
RTVSPost2010Prop54
  1
strokes_ogs.tif
102
RTVSPost2010PropOp54
 70
     1
102
RTVSPost2010Prop55
280
     0
102
RTVSPost2010PropOp55
 70
     1
102
RTVSPost2010Prop56
140
1.0
102
RTVSPost2010PropOp56
 70
     1
102
RTVSPost2010Prop57
140
1.0
102
RTVSPost2010PropOp57
 70
     1
102
RTVSPropertyOp0
 70
     1
102
RTVSPropertyOp1
 70
     1
102
RTVSPropertyOp2
 70
     1
102
RTVSPropertyOp3
 70
     1
102
RTVSPropertyOp4
 70
     1
102
RTVSPropertyOp5
 70
     1
102
RTVSPropertyOp6
 70
     1
102
RTVSPropertyOp7
 70
     1
102
RTVSPropertyOp8
 70
     1
102
RTVSPropertyOp9
 70
     1
102
RTVSPropertyOp10
 70
     1
102
RTVSPropertyOp11
 70
     1
102
RTVSPropertyOp12
 70
     1
102
RTVSPropertyOp13
 70
     1
102
RTVSPropertyOp14
 70
     1
102
RTVSPropertyOp15
 70
     1
102
RTVSPropertyOp16
 70
     1
102
RTVSPropertyOp17
 70
     1
102
RTVSPropertyOp18
 70
     1
102
RTVSPropertyOp19
 70
     1
102
RTVSPropertyOp20
 70
     1
102
RTVSPropertyOp21
 70
     1
102
RTVSPropertyOp22
 70
     1
102
RTVSPropertyOp23
 70
     1
102
RTVSPropertyOp24
 70
     1
102
RTVSPropertyOp25
 70
     1
102
RTVSPropertyOp26
 70
     1
102
RTVSPropertyOp27
 70
     1
102
RTVSPropertyOp28
 70
     1
102
RTVSPropertyOp29
 70
     1
102
RTVSPropertyOp30
 70
     1
102
RTVSPropertyOp31
 70
     1
102
RTVSPropertyOp32
 70
     1
102
RTVSPropertyOp33
 70
     1
102
RTVSPropertyOp34
 70
     1
102
RTVSPropertyOp35
 70
     1
102
RTVSPropertyOp36
 70
     1
102
RTVSPropertyOp37
 70
     1
102
RTVSPropertyOp38
 70
     1
102
RTVSPropertyOp39
 70
     1
102
RTVSPropertyOp40
 70
     1
102
RTVSPropertyOp41
 70
     1
102
RTVSPropertyOp42
 70
     1
102
RTVSPropertyOp43
 70
     1
102
RTVSPropertyOp44
 70
     1
102
RTVSPropertyOp45
 70
     1
102
RTVSPropertyOp46
 70
     1
102
RTVSPropertyOp47
 70
     1
102
RTVSPropertyOp48
 70
     1
102
RTVSPropertyOp49
 70
     1
102
RTVSPropertyOp50
 70
     1
102
RTVSPropertyOp51
 70
     0
102
RTVSPropertyOp52
 70
     0
102
RTVSPropertyOp53
 70
     1
102
RTVSPropertyOp54
 70
     1
102
RTVSPropertyOp55
 70
     1
102
RTVSPropertyOp56
 70
     1
102
RTVSPropertyOp57
 70
     1
102
RTVSPropertyOp58
 70
     1
102
RTVSPropertyOp59
 70
     1
102
RTVSPropertyOp60
 70
     1
102
RTVSPropertyOp61
 70
     1
102
RTVSPropertyOp62
 70
     1
  0
XRECORD
  5
714
102
{ACAD_REACTORS
330
713
102
}
330
713
100
AcDbXrecord
280
     1
102
RTVSPost2010Prop28
280
     0
102
RTVSPost2010PropOp28
 70
     1
102
RTVSPost2010Prop29
280
     1
102
RTVSPost2010PropOp29
 70
     1
102
RTVSPost2010Prop30
280
     1
102
RTVSPost2010PropOp30
 70
     1
102
RTVSPost2010Prop31
280
     0
102
RTVSPost2010PropOp31
 70
     1
102
RTVSPost2010Prop32
280
     0
102
RTVSPost2010PropOp32
 70
     1
102
RTVSPost2010Prop33
280
     0
102
RTVSPost2010PropOp33
 70
     1
102
RTVSPost2010Prop34
280
     0
102
RTVSPost2010PropOp34
 70
     1
102
RTVSPost2010Prop35
280
     0
102
RTVSPost2010PropOp35
 70
     1
102
RTVSPost2010Prop36
280
     0
102
RTVSPost2010PropOp36
 70
     1
102
RTVSPost2010Prop37
 90
       50
102
RTVSPost2010PropOp37
 70
     1
102
RTVSPost2010Prop38
140
0.0
102
RTVSPost2010PropOp38
 70
     1
102
RTVSPost2010Prop39
140
1.0
102
RTVSPost2010PropOp39
 70
     1
102
RTVSPost2010Prop40
 90
        0
102
RTVSPost2010PropOp40
 70
     1
102
RTVSPost2010Prop41ColorIndex
 90
       18
102
RTVSPost2010Prop41ColorRGB
 90
        0
102
RTVSPost2010PropOp41
 70
     1
102
RTVSPost2010Prop42
 90
       50
102
RTVSPost2010PropOp42
 70
     1
102
RTVSPost2010Prop43
 90
        3
102
RTVSPost2010PropOp43
 70
     1
102
RTVSPost2010Prop44ColorIndex
 90
        5
102
RTVSPost2010Prop44ColorRGB
 90
      255
102
RTVSPost2010PropOp44
 70
     1
102
RTVSPost2010Prop45
280
     0
102
RTVSPost2010PropOp45
 70
     1
102
RTVSPost2010Prop46
 90
       50
102
RTVSPost2010PropOp46
 70
     1
102
RTVSPost2010Prop47
 90
       50
102
RTVSPost2010PropOp47
 70
     1
102
RTVSPost2010Prop48
 90
       50
102
RTVSPost2010PropOp48
 70
     1
102
RTVSPost2010Prop49
280
     0
102
RTVSPost2010PropOp49
 70
     1
102
RTVSPost2010Prop50
 90
       50
102
RTVSPost2010PropOp50
 70
     1
102
RTVSPost2010Prop51ColorIndex
 90
      256
102
RTVSPost2010Prop51ColorRGB
 90
-16777216
102
RTVSPost2010PropOp51
 70
     0
102
RTVSPost2010Prop52
140
1.0
102
RTVSPost2010PropOp52
 70
     0
102
RTVSPost2010Prop53
 90
        2
102
RTVSPost2010PropOp53
 70
     1
102
RTVSPost2010Prop54
  1
strokes_ogs.tif
102
RTVSPost2010PropOp54
 70
     1
102
RTVSPost2010Prop55
280
     0
102
RTVSPost2010PropOp55
 70
     1
102
RTVSPost2010Prop56
140
1.0
102
RTVSPost2010PropOp56
 70
     1
102
RTVSPost2010Prop57
140
1.0
102
RTVSPost2010PropOp57
 70
     1
102
RTVSPropertyOp0
 70
     1
102
RTVSPropertyOp1
 70
     1
102
RTVSPropertyOp2
 70
     1
102
RTVSPropertyOp3
 70
     1
102
RTVSPropertyOp4
 70
     1
102
RTVSPropertyOp5
 70
     1
102
RTVSPropertyOp6
 70
     1
102
RTVSPropertyOp7
 70
     1
102
RTVSPropertyOp8
 70
     1
102
RTVSPropertyOp9
 70
     1
102
RTVSPropertyOp10
 70
     1
102
RTVSPropertyOp11
 70
     1
102
RTVSPropertyOp12
 70
     1
102
RTVSPropertyOp13
 70
     1
102
RTVSPropertyOp14
 70
     1
102
RTVSPropertyOp15
 70
     1
102
RTVSPropertyOp16
 70
     1
102
RTVSPropertyOp17
 70
     1
102
RTVSPropertyOp18
 70
     1
102
RTVSPropertyOp19
 70
     1
102
RTVSPropertyOp20
 70
     1
102
RTVSPropertyOp21
 70
     1
102
RTVSPropertyOp22
 70
     1
102
RTVSPropertyOp23
 70
     1
102
RTVSPropertyOp24
 70
     1
102
RTVSPropertyOp25
 70
     1
102
RTVSPropertyOp26
 70
     1
102
RTVSPropertyOp27
 70
     1
102
RTVSPropertyOp28
 70
     1
102
RTVSPropertyOp29
 70
     1
102
RTVSPropertyOp30
 70
     1
102
RTVSPropertyOp31
 70
     1
102
RTVSPropertyOp32
 70
     1
102
RTVSPropertyOp33
 70
     1
102
RTVSPropertyOp34
 70
     1
102
RTVSPropertyOp35
 70
     1
102
RTVSPropertyOp36
 70
     1
102
RTVSPropertyOp37
 70
     1
102
RTVSPropertyOp38
 70
     1
102
RTVSPropertyOp39
 70
     1
102
RTVSPropertyOp40
 70
     1
102
RTVSPropertyOp41
 70
     1
102
RTVSPropertyOp42
 70
     1
102
RTVSPropertyOp43
 70
     1
102
RTVSPropertyOp44
 70
     1
102
RTVSPropertyOp45
 70
     1
102
RTVSPropertyOp46
 70
     1
102
RTVSPropertyOp47
 70
     1
102
RTVSPropertyOp48
 70
     1
102
RTVSPropertyOp49
 70
     1
102
RTVSPropertyOp50
 70
     1
102
RTVSPropertyOp51
 70
     0
102
RTVSPropertyOp52
 70
     0
102
RTVSPropertyOp53
 70
     1
102
RTVSPropertyOp54
 70
     1
102
RTVSPropertyOp55
 70
     1
102
RTVSPropertyOp56
 70
     1
102
RTVSPropertyOp57
 70
     1
102
RTVSPropertyOp58
 70
     1
102
RTVSPropertyOp59
 70
     1
102
RTVSPropertyOp60
 70
     1
102
RTVSPropertyOp61
 70
     1
102
RTVSPropertyOp62
 70
     1
  0
ENDSEC
  0
EOF
