  0
SECTION
  2
HEADER
  9
$ACADVER
  1
AC1015
  9
$ACADMAINTVER
 70
    20
  9
$DWGCODEPAGE
  3
ANSI_1252
  9
$INSBASE
 10
0.0
 20
0.0
 30
0.0
  9
$EXTMIN
 10
270159.0
 20
345837.53
 30
0.0
  9
$EXTMAX
 10
270325.0
 20
346035.6
 30
0.0
  9
$LIMMIN
 10
0.0
 20
0.0
  9
$LIMMAX
 10
12.0
 20
9.0
  9
$ORTHOMODE
 70
     0
  9
$REGENMODE
 70
     1
  9
$FILLMODE
 70
     1
  9
$QTEXTMODE
 70
     0
  9
$MIRRTEXT
 70
     0
  9
$LTSCALE
 40
1.0
  9
$ATTMODE
 70
     1
  9
$TEXTSIZE
 40
0.2
  9
$TRACEWID
 40
0.05
  9
$TEXTSTYLE
  7
Standard
  9
$CLAYER
  8
0
  9
$CELTYPE
  6
Continuous
  9
$CECOLOR
 62
   256
  9
$CELTSCALE
 40
1.0
  9
$DISPSILH
 70
     0
  9
$DIMSCALE
 40
1.0
  9
$DIMASZ
 40
0.18
  9
$DIMEXO
 40
0.0625
  9
$DIMDLI
 40
0.38
  9
$DIMRND
 40
0.0
  9
$DIMDLE
 40
0.0
  9
$DIMEXE
 40
0.18
  9
$DIMTP
 40
0.0
  9
$DIMTM
 40
0.0
  9
$DIMTXT
 40
0.18
  9
$DIMCEN
 40
0.09
  9
$DIMTSZ
 40
0.0
  9
$DIMTOL
 70
     0
  9
$DIMLIM
 70
     0
  9
$DIMTIH
 70
     1
  9
$DIMTOH
 70
     1
  9
$DIMSE1
 70
     0
  9
$DIMSE2
 70
     0
  9
$DIMTAD
 70
     0
  9
$DIMZIN
 70
     0
  9
$DIMBLK
  1

  9
$DIMASO
 70
     1
  9
$DIMSHO
 70
     1
  9
$DIMPOST
  1

  9
$DIMAPOST
  1

  9
$DIMALT
 70
     0
  9
$DIMALTD
 70
     2
  9
$DIMALTF
 40
25.4
  9
$DIMLFAC
 40
1.0
  9
$DIMTOFL
 70
     0
  9
$DIMTVP
 40
0.0
  9
$DIMTIX
 70
     0
  9
$DIMSOXD
 70
     0
  9
$DIMSAH
 70
     0
  9
$DIMBLK1
  1

  9
$DIMBLK2
  1

  9
$DIMSTYLE
  2
Standard
  9
$DIMCLRD
 70
     0
  9
$DIMCLRE
 70
     0
  9
$DIMCLRT
 70
     0
  9
$DIMTFAC
 40
1.0
  9
$DIMGAP
 40
0.09
  9
$DIMJUST
 70
     0
  9
$DIMSD1
 70
     0
  9
$DIMSD2
 70
     0
  9
$DIMTOLJ
 70
     1
  9
$DIMTZIN
 70
     0
  9
$DIMALTZ
 70
     0
  9
$DIMALTTZ
 70
     0
  9
$DIMUPT
 70
     0
  9
$DIMDEC
 70
     4
  9
$DIMTDEC
 70
     4
  9
$DIMALTU
 70
     2
  9
$DIMALTTD
 70
     2
  9
$DIMTXSTY
  7
Standard
  9
$DIMAUNIT
 70
     0
  9
$DIMADEC
 70
     0
  9
$DIMALTRND
 40
0.0
  9
$DIMAZIN
 70
     0
  9
$DIMDSEP
 70
    46
  9
$DIMATFIT
 70
     3
  9
$DIMFRAC
 70
     0
  9
$DIMLDRBLK
  1

  9
$DIMLUNIT
 70
     2
  9
$DIMLWD
 70
    -2
  9
$DIMLWE
 70
    -2
  9
$DIMTMOVE
 70
     0
  9
$LUNITS
 70
     2
  9
$LUPREC
 70
     4
  9
$SKETCHINC
 40
0.1
  9
$FILLETRAD
 40
0.0
  9
$AUNITS
 70
     0
  9
$AUPREC
 70
     0
  9
$MENU
  1
.
  9
$ELEVATION
 40
0.0
  9
$PELEVATION
 40
0.0
  9
$THICKNESS
 40
0.0
  9
$LIMCHECK
 70
     0
  9
$CHAMFERA
 40
0.0
  9
$CHAMFERB
 40
0.0
  9
$CHAMFERC
 40
0.0
  9
$CHAMFERD
 40
0.0
  9
$SKPOLY
 70
     0
  9
$TDCREATE
 40
2458761.594027778
  9
$TDUCREATE
 40
2458761.552361111
  9
$TDUPDATE
 40
2458761.594131944
  9
$TDUUPDATE
 40
2458761.552465278
  9
$TDINDWG
 40
0.0001041667
  9
$TDUSRTIMER
 40
0.0001041667
  9
$USRTIMER
 70
     1
  9
$ANGBASE
 50
0.0
  9
$ANGDIR
 70
     0
  9
$PDMODE
 70
     0
  9
$PDSIZE
 40
0.0
  9
$PLINEWID
 40
0.0
  9
$SPLFRAME
 70
     0
  9
$SPLINETYPE
 70
     6
  9
$SPLINESEGS
 70
     8
  9
$HANDSEED
  5
893
  9
$SURFTAB1
 70
     6
  9
$SURFTAB2
 70
     6
  9
$SURFTYPE
 70
     6
  9
$SURFU
 70
     6
  9
$SURFV
 70
     6
  9
$UCSBASE
  2

  9
$UCSNAME
  2

  9
$UCSORG
 10
0.0
 20
0.0
 30
0.0
  9
$UCSXDIR
 10
1.0
 20
0.0
 30
0.0
  9
$UCSYDIR
 10
0.0
 20
1.0
 30
0.0
  9
$UCSORTHOREF
  2

  9
$UCSORTHOVIEW
 70
     0
  9
$UCSORGTOP
 10
0.0
 20
0.0
 30
0.0
  9
$UCSORGBOTTOM
 10
0.0
 20
0.0
 30
0.0
  9
$UCSORGLEFT
 10
0.0
 20
0.0
 30
0.0
  9
$UCSORGRIGHT
 10
0.0
 20
0.0
 30
0.0
  9
$UCSORGFRONT
 10
0.0
 20
0.0
 30
0.0
  9
$UCSORGBACK
 10
0.0
 20
0.0
 30
0.0
  9
$PUCSBASE
  2

  9
$PUCSNAME
  2

  9
$PUCSORG
 10
0.0
 20
0.0
 30
0.0
  9
$PUCSXDIR
 10
1.0
 20
0.0
 30
0.0
  9
$PUCSYDIR
 10
0.0
 20
1.0
 30
0.0
  9
$PUCSORTHOREF
  2

  9
$PUCSORTHOVIEW
 70
     0
  9
$PUCSORGTOP
 10
0.0
 20
0.0
 30
0.0
  9
$PUCSORGBOTTOM
 10
0.0
 20
0.0
 30
0.0
  9
$PUCSORGLEFT
 10
0.0
 20
0.0
 30
0.0
  9
$PUCSORGRIGHT
 10
0.0
 20
0.0
 30
0.0
  9
$PUCSORGFRONT
 10
0.0
 20
0.0
 30
0.0
  9
$PUCSORGBACK
 10
0.0
 20
0.0
 30
0.0
  9
$USERI1
 70
     0
  9
$USERI2
 70
     0
  9
$USERI3
 70
     0
  9
$USERI4
 70
     0
  9
$USERI5
 70
     0
  9
$USERR1
 40
0.0
  9
$USERR2
 40
0.0
  9
$USERR3
 40
0.0
  9
$USERR4
 40
0.0
  9
$USERR5
 40
0.0
  9
$WORLDVIEW
 70
     1
  9
$SHADEDGE
 70
     3
  9
$SHADEDIF
 70
    70
  9
$TILEMODE
 70
     1
  9
$MAXACTVP
 70
    64
  9
$PINSBASE
 10
0.0
 20
0.0
 30
0.0
  9
$PLIMCHECK
 70
     0
  9
$PEXTMIN
 10
1.000000000000000E+20
 20
1.000000000000000E+20
 30
1.000000000000000E+20
  9
$PEXTMAX
 10
-1.000000000000000E+20
 20
-1.000000000000000E+20
 30
-1.000000000000000E+20
  9
$PLIMMIN
 10
0.0
 20
0.0
  9
$PLIMMAX
 10
12.0
 20
9.0
  9
$UNITMODE
 70
     0
  9
$VISRETAIN
 70
     1
  9
$PLINEGEN
 70
     0
  9
$PSLTSCALE
 70
     1
  9
$TREEDEPTH
 70
  3020
  9
$CMLSTYLE
  2
Standard
  9
$CMLJUST
 70
     0
  9
$CMLSCALE
 40
1.0
  9
$PROXYGRAPHICS
 70
     1
  9
$MEASUREMENT
 70
     0
  9
$CELWEIGHT
370
    -1
  9
$ENDCAPS
280
     0
  9
$JOINSTYLE
280
     0
  9
$LWDISPLAY
290
     0
  9
$INSUNITS
 70
     0
  9
$HYPERLINKBASE
  1

  9
$STYLESHEET
  1

  9
$XEDIT
290
     1
  9
$CEPSNTYPE
380
     0
  9
$PSTYLEMODE
290
     1
  9
$FINGERPRINTGUID
  2
{ADCCFF0F-0B7E-EB47-8EF8-34D92CAB1210}
  9
$VERSIONGUID
  2
{B6E670A2-389D-6B41-81C9-E8044FE717CC}
  9
$EXTNAMES
290
     1
  9
$PSVPSCALE
 40
0.0
  9
$OLESTARTUP
290
     0
  0
ENDSEC
  0
SECTION
  2
CLASSES
  0
CLASS
  1
ACDBDICTIONARYWDFLT
  2
AcDbDictionaryWithDefault
  3
ObjectDBX Classes
 90
        0
280
     0
281
     0
  0
CLASS
  1
MATERIAL
  2
AcDbMaterial
  3
ObjectDBX Classes
 90
     1153
280
     0
281
     0
  0
CLASS
  1
VISUALSTYLE
  2
AcDbVisualStyle
  3
ObjectDBX Classes
 90
     4095
280
     0
281
     0
  0
CLASS
  1
SCALE
  2
AcDbScale
  3
ObjectDBX Classes
 90
     1153
280
     0
281
     0
  0
CLASS
  1
TABLESTYLE
  2
AcDbTableStyle
  3
ObjectDBX Classes
 90
     4095
280
     0
281
     0
  0
CLASS
  1
MLEADERSTYLE
  2
AcDbMLeaderStyle
  3
ACDB_MLEADERSTYLE_CLASS
 90
     4095
280
     0
281
     0
  0
CLASS
  1
ACDBSECTIONVIEWSTYLE
  2
AcDbSectionViewStyle
  3
ObjectDBX Classes
 90
     1025
280
     0
281
     0
  0
CLASS
  1
ACDBDETAILVIEWSTYLE
  2
AcDbDetailViewStyle
  3
ObjectDBX Classes
 90
     1025
280
     0
281
     0
  0
CLASS
  1
DICTIONARYVAR
  2
AcDbDictionaryVar
  3
ObjectDBX Classes
 90
        0
280
     0
281
     0
  0
CLASS
  1
CELLSTYLEMAP
  2
AcDbCellStyleMap
  3
ObjectDBX Classes
 90
     1152
280
     0
281
     0
  0
CLASS
  1
ACDBPLACEHOLDER
  2
AcDbPlaceHolder
  3
ObjectDBX Classes
 90
        0
280
     0
281
     0
  0
CLASS
  1
LAYOUT
  2
AcDbLayout
  3
ObjectDBX Classes
 90
        0
280
     0
281
     0
  0
ENDSEC
  0
SECTION
  2
TABLES
  0
TABLE
  2
VPORT
  5
8
330
0
100
AcDbSymbolTable
 70
     1
  0
VPORT
  5
7E
330
8
100
AcDbSymbolTableRecord
100
AcDbViewportTableRecord
  2
*Active
 70
     0
 10
0.0
 20
0.0
 11
1.0
 21
1.0
 12
270242.0
 22
345936.565
 13
0.0
 23
0.0
 14
1.0
 24
1.0
 15
0.0
 25
0.0
 16
0.0
 26
0.0
 36
1.0
 17
0.0
 27
0.0
 37
0.0
 40
199.4113318283343
 41
2.159322033898305
 42
50.0
 43
0.0
 44
0.0
 50
0.0
 51
0.0
 71
     0
 72
   100
 73
     1
 74
     1
 75
     0
 76
     0
 77
     0
 78
     0
281
     0
 65
     1
110
0.0
120
0.0
130
0.0
111
1.0
121
0.0
131
0.0
112
0.0
122
1.0
132
0.0
 79
     0
146
0.0
1001
ACAD_NAV_VCDISPLAY
1070
     3
  0
ENDTAB
  0
TABLE
  2
LTYPE
  5
5
330
0
100
AcDbSymbolTable
 70
     1
  0
LTYPE
  5
5A
330
5
100
AcDbSymbolTableRecord
100
AcDbLinetypeTableRecord
  2
ByBlock
 70
     0
  3

 72
    65
 73
     0
 40
0.0
  0
LTYPE
  5
5B
330
5
100
AcDbSymbolTableRecord
100
AcDbLinetypeTableRecord
  2
ByLayer
 70
     0
  3

 72
    65
 73
     0
 40
0.0
  0
LTYPE
  5
5C
330
5
100
AcDbSymbolTableRecord
100
AcDbLinetypeTableRecord
  2
Continuous
 70
     0
  3
Solid line
 72
    65
 73
     0
 40
0.0
  0
ENDTAB
  0
TABLE
  2
LAYER
  5
2
330
0
100
AcDbSymbolTable
 70
    11
  0
LAYER
  5
54
102
{ACAD_XDICTIONARY
360
7F0
102
}
330
2
100
AcDbSymbolTableRecord
100
AcDbLayerTableRecord
  2
0
 70
     0
 62
     7
  6
Continuous
370
    -3
390
F
  0
LAYER
  5
73
102
{ACAD_XDICTIONARY
360
7F2
102
}
330
2
100
AcDbSymbolTableRecord
100
AcDbLayerTableRecord
  2
01_-_GENERAL_SURFACE
 70
     0
 62
     7
  6
Continuous
370
    -3
390
F
  0
LAYER
  5
74
102
{ACAD_XDICTIONARY
360
7F4
102
}
330
2
100
AcDbSymbolTableRecord
100
AcDbLayerTableRecord
  2
02_-_GENERAL_FEATURE
 70
     0
 62
     7
  6
Continuous
370
    -3
390
F
  0
LAYER
  5
75
102
{ACAD_XDICTIONARY
360
7F6
102
}
330
2
100
AcDbSymbolTableRecord
100
AcDbLayerTableRecord
  2
04_-_LANDFORM
 70
     0
 62
     7
  6
Continuous
370
    -3
390
F
  0
LAYER
  5
76
102
{ACAD_XDICTIONARY
360
7F8
102
}
330
2
100
AcDbSymbolTableRecord
100
AcDbLayerTableRecord
  2
05_-_HEIGHT_CONTROL
 70
     0
 62
     7
  6
Continuous
370
    -3
390
F
  0
LAYER
  5
77
102
{ACAD_XDICTIONARY
360
7FA
102
}
330
2
100
AcDbSymbolTableRecord
100
AcDbLayerTableRecord
  2
11_-_NETWORK_OR_POLYGON_CLOSING
 70
     0
 62
     7
  6
Continuous
370
    -3
390
F
  0
LAYER
  5
78
102
{ACAD_XDICTIONARY
360
7FC
102
}
330
2
100
AcDbSymbolTableRecord
100
AcDbLayerTableRecord
  2
14_-_POLITICAL_OR_ADMINISTRATIV
 70
     0
 62
     7
  6
Continuous
370
    -3
390
F
  0
LAYER
  5
79
102
{ACAD_XDICTIONARY
360
7FE
102
}
330
2
100
AcDbSymbolTableRecord
100
AcDbLayerTableRecord
  2
17_-_STRUCTURE
 70
     0
 62
     7
  6
Continuous
370
    -3
390
F
  0
LAYER
  5
7A
102
{ACAD_XDICTIONARY
360
800
102
}
330
2
100
AcDbSymbolTableRecord
100
AcDbLayerTableRecord
  2
22_-_ROAD_OR_TRACK
 70
     0
 62
     7
  6
Continuous
370
    -3
390
F
  0
LAYER
  5
7B
102
{ACAD_XDICTIONARY
360
802
102
}
330
2
100
AcDbSymbolTableRecord
100
AcDbLayerTableRecord
  2
25_-_BUILDING
 70
     0
 62
    10
  6
Continuous
370
    -3
390
F
  0
LAYER
  5
7C
102
{ACAD_XDICTIONARY
360
804
102
}
330
2
100
AcDbSymbolTableRecord
100
AcDbLayerTableRecord
  2
MM_FRAME
 70
     0
 62
     6
  6
Continuous
370
    -3
390
F
  0
ENDTAB
  0
TABLE
  2
STYLE
  5
3
330
0
100
AcDbSymbolTable
 70
     2
  0
STYLE
  5
55
330
3
100
AcDbSymbolTableRecord
100
AcDbTextStyleTableRecord
  2
Standard
 70
     0
 40
0.0
 41
1.0
 50
0.0
 71
     0
 42
0.2
  3
txt
  4

  0
STYLE
  5
59
330
3
100
AcDbSymbolTableRecord
100
AcDbTextStyleTableRecord
  2
Annotative
 70
     0
 40
0.0
 41
1.0
 50
0.0
 71
     0
 42
0.2
  3
txt
  4

1001
AcadAnnotative
1000
AnnotativeData
1002
{
1070
     1
1070
     1
1002
}
  0
ENDTAB
  0
TABLE
  2
VIEW
  5
6
330
0
100
AcDbSymbolTable
 70
     0
  0
ENDTAB
  0
TABLE
  2
UCS
  5
7
330
0
100
AcDbSymbolTable
 70
     0
  0
ENDTAB
  0
TABLE
  2
APPID
  5
9
330
0
100
AcDbSymbolTable
 70
     4
  0
APPID
  5
56
330
9
100
AcDbSymbolTableRecord
100
AcDbRegAppTableRecord
  2
ACAD
 70
     0
  0
APPID
  5
5D
330
9
100
AcDbSymbolTableRecord
100
AcDbRegAppTableRecord
  2
AcadAnnotative
 70
     0
  0
APPID
  5
810
330
9
100
AcDbSymbolTableRecord
100
AcDbRegAppTableRecord
  2
ACAD_NAV_VCDISPLAY
 70
     0
  0
APPID
  5
88A
330
9
100
AcDbSymbolTableRecord
100
AcDbRegAppTableRecord
  2
ACAD_MLEADERVER
 70
     0
  0
ENDTAB
  0
TABLE
  2
DIMSTYLE
  5
A
330
0
100
AcDbSymbolTable
 70
     2
100
AcDbDimStyleTable
 71
     0
  0
DIMSTYLE
105
57
330
A
100
AcDbSymbolTableRecord
100
AcDbDimStyleTableRecord
  2
Standard
 70
     0
340
55
  0
DIMSTYLE
105
58
330
A
100
AcDbSymbolTableRecord
100
AcDbDimStyleTableRecord
  2
Annotative
 70
     0
340
55
1001
AcadAnnotative
1000
AnnotativeData
1002
{
1070
     1
1070
     1
1002
}
  0
ENDTAB
  0
TABLE
  2
BLOCK_RECORD
  5
1
330
0
100
AcDbSymbolTable
 70
     0
  0
BLOCK_RECORD
  5
6F
330
1
100
AcDbSymbolTableRecord
100
AcDbBlockTableRecord
  2
*Model_Space
340
72
  0
BLOCK_RECORD
  5
6B
330
1
100
AcDbSymbolTableRecord
100
AcDbBlockTableRecord
  2
*Paper_Space
340
6E
  0
ENDTAB
  0
ENDSEC
  0
SECTION
  2
BLOCKS
  0
BLOCK
  5
70
330
6F
100
AcDbEntity
  8
0
100
AcDbBlockBegin
  2
*Model_Space
 70
     0
 10
0.0
 20
0.0
 30
0.0
  3
*Model_Space
  1

  0
ENDBLK
  5
71
330
6F
100
AcDbEntity
  8
0
100
AcDbBlockEnd
  0
BLOCK
  5
6C
330
6B
100
AcDbEntity
 67
     1
  8
0
100
AcDbBlockBegin
  2
*Paper_Space
 70
     0
 10
0.0
 20
0.0
 30
0.0
  3
*Paper_Space
  1

  0
ENDBLK
  5
6D
330
6B
100
AcDbEntity
 67
     1
  8
0
100
AcDbBlockEnd
  0
ENDSEC
  0
SECTION
  2
ENTITIES
  0
LWPOLYLINE
  5
7F
330
6F
100
AcDbEntity
  8
25_-_BUILDING
100
AcDbPolyline
 90
        4
 70
     0
 43
0.0
 10
270282.51
 20
345877.49
 10
270280.3100000001
 20
345879.3900000001
 10
270274.81
 20
345872.89
 10
270275.61
 20
345872.29
  0
LINE
  5
85
330
6F
100
AcDbEntity
  8
02_-_GENERAL_FEATURE
100
AcDbLine
 10
270284.88
 20
345866.0
 30
0.0
 11
270285.1900000001
 21
345866.4500000001
 31
0.0
  0
LINE
  5
86
330
6F
100
AcDbEntity
  8
02_-_GENERAL_FEATURE
100
AcDbLine
 10
270201.66
 20
345923.69
 30
0.0
 11
270193.05
 21
345923.65
 31
0.0
  0
LWPOLYLINE
  5
87
330
6F
100
AcDbEntity
  8
02_-_GENERAL_FEATURE
100
AcDbPolyline
 90
       18
 70
     0
 43
0.0
 10
270266.84
 20
345950.56
 10
270267.41
 20
345950.5500000001
 10
270267.62
 20
345950.5200000001
 10
270268.01
 20
345950.44
 10
270268.49
 20
345950.21
 10
270269.04
 20
345949.9500000001
 10
270269.42
 20
345949.62
 10
270270.01
 20
345948.8
 10
270270.2700000001
 20
345948.01
 10
270270.29
 20
345947.88
 10
270270.2800000001
 20
345947.13
 10
270270.09
 20
345946.4
 10
270269.66
 20
345945.64
 10
270269.03
 20
345945.0200000001
 10
270268.4
 20
345944.67
 10
270268.36
 20
345944.6500000001
 10
270268.2
 20
345945.11
 10
270266.76
 20
345949.18
  0
LINE
  5
9B
330
6F
100
AcDbEntity
  8
02_-_GENERAL_FEATURE
100
AcDbLine
 10
270315.29
 20
346011.8700000001
 30
0.0
 11
270311.63
 21
346016.0
 31
0.0
  0
LINE
  5
9C
330
6F
100
AcDbEntity
  8
11_-_NETWORK_OR_POLYGON_CLOSING
100
AcDbLine
 10
270270.5100000001
 20
345892.2900000001
 30
0.0
 11
270265.37
 21
345895.58
 31
0.0
  0
LWPOLYLINE
  5
9D
330
6F
100
AcDbEntity
  8
22_-_ROAD_OR_TRACK
100
AcDbPolyline
 90
       11
 70
     0
 43
0.0
 10
270226.99
 20
345936.28
 10
270226.97
 20
345936.29
 10
270226.76
 20
345936.3800000001
 10
270225.76
 20
345936.57
 10
270224.75
 20
345936.41
 10
270207.55
 20
345930.11
 10
270206.0300000001
 20
345929.45
 10
270204.82
 20
345928.66
 10
270203.47
 20
345927.31
 10
270202.36
 20
345925.33
 10
270201.66
 20
345923.69
  0
LINE
  5
AA
330
6F
100
AcDbEntity
  8
02_-_GENERAL_FEATURE
100
AcDbLine
 10
270206.3900000001
 20
345870.9600000001
 30
0.0
 11
270204.6500000001
 21
345866.0
 31
0.0
  0
LWPOLYLINE
  5
AB
330
6F
100
AcDbEntity
  8
25_-_BUILDING
100
AcDbPolyline
 90
        3
 70
     0
 43
0.0
 10
270282.51
 20
345877.49
 10
270280.91
 20
345875.5900000001
 10
270285.31
 20
345871.99
  0
LINE
  5
B0
330
6F
100
AcDbEntity
  8
25_-_BUILDING
100
AcDbLine
 10
270270.8100000001
 20
345870.8900000001
 30
0.0
 11
270274.31
 21
345874.8900000001
 31
0.0
  0
LINE
  5
B1
330
6F
100
AcDbEntity
  8
25_-_BUILDING
100
AcDbLine
 10
270265.49
 20
345882.77
 30
0.0
 11
270260.01
 21
345887.39
 31
0.0
  0
LINE
  5
B2
330
6F
100
AcDbEntity
  8
25_-_BUILDING
100
AcDbLine
 10
270312.91
 20
345878.29
 30
0.0
 11
270317.0
 21
345882.92
 31
0.0
  0
LINE
  5
B3
330
6F
100
AcDbEntity
  8
25_-_BUILDING
100
AcDbLine
 10
270300.57
 20
345935.44
 30
0.0
 11
270295.9400000001
 21
345932.8900000001
 31
0.0
  0
LINE
  5
B4
330
6F
100
AcDbEntity
  8
25_-_BUILDING
100
AcDbLine
 10
270295.9400000001
 20
345932.8900000001
 30
0.0
 11
270292.1400000001
 21
345930.8
 31
0.0
  0
LINE
  5
B5
330
6F
100
AcDbEntity
  8
25_-_BUILDING
100
AcDbLine
 10
270313.54
 20
345934.5000000001
 30
0.0
 11
270315.44
 21
345931.2000000001
 31
0.0
  0
LINE
  5
B6
330
6F
100
AcDbEntity
  8
25_-_BUILDING
100
AcDbLine
 10
270317.0
 20
345908.44
 30
0.0
 11
270310.79
 21
345904.98
 31
0.0
  0
LWPOLYLINE
  5
B7
330
6F
100
AcDbEntity
  8
25_-_BUILDING
100
AcDbPolyline
 90
        9
 70
     0
 43
0.0
 10
270247.3100000001
 20
345923.39
 10
270246.31
 20
345928.5900000001
 10
270250.81
 20
345929.5900000001
 10
270251.21
 20
345928.5900000001
 10
270257.61
 20
345930.0900000001
 10
270257.2100000001
 20
345931.39
 10
270262.5100000001
 20
345932.59
 10
270263.71
 20
345927.19
 10
270247.3100000001
 20
345923.39
  0
LINE
  5
C2
330
6F
100
AcDbEntity
  8
02_-_GENERAL_FEATURE
100
AcDbLine
 10
270306.21
 20
345884.0900000001
 30
0.0
 11
270304.8900000001
 21
345885.2
 31
0.0
  0
LWPOLYLINE
  5
C3
330
6F
100
AcDbEntity
  8
02_-_GENERAL_FEATURE
100
AcDbPolyline
 90
        7
 70
     0
 43
0.0
 10
270236.7000000001
 20
345869.88
 10
270237.4000000001
 20
345869.98
 10
270238.4
 20
345869.98
 10
270239.0900000001
 20
345869.75
 10
270240.2000000001
 20
345869.3800000001
 10
270243.3
 20
345867.68
 10
270244.66
 20
345866.44
  0
LINE
  5
CC
330
6F
100
AcDbEntity
  8
02_-_GENERAL_FEATURE
100
AcDbLine
 10
270250.2
 20
345960.85
 30
0.0
 11
270251.79
 21
345956.2
 31
0.0
  0
LWPOLYLINE
  5
CD
330
6F
100
AcDbEntity
  8
02_-_GENERAL_FEATURE
100
AcDbPolyline
 90
        3
 70
     0
 43
0.0
 10
270267.06
 20
345881.4500000001
 10
270274.01
 20
345889.79
 10
270275.96
 20
345888.17
  0
LINE
  5
D2
330
6F
100
AcDbEntity
  8
02_-_GENERAL_FEATURE
100
AcDbLine
 10
270300.74
 20
345924.4
 30
0.0
 11
270304.14
 21
345918.1
 31
0.0
  0
LWPOLYLINE
  5
D3
330
6F
100
AcDbEntity
  8
02_-_GENERAL_FEATURE
100
AcDbPolyline
 90
        4
 70
     0
 43
0.0
 10
270226.5000000001
 20
345907.27
 10
270224.3
 20
345908.2700000001
 10
270223.5
 20
345906.0700000001
 10
270225.39
 20
345904.98
  0
LINE
  5
D9
330
6F
100
AcDbEntity
  8
02_-_GENERAL_FEATURE
100
AcDbLine
 10
270268.91
 20
345879.89
 30
0.0
 11
270275.96
 21
345888.17
 31
0.0
  0
LINE
  5
DA
330
6F
100
AcDbEntity
  8
25_-_BUILDING
100
AcDbLine
 10
270288.99
 20
345870.75
 30
0.0
 11
270287.19
 21
345868.6500000001
 31
0.0
  0
LWPOLYLINE
  5
DB
330
6F
100
AcDbEntity
  8
25_-_BUILDING
100
AcDbPolyline
 90
        5
 70
     0
 43
0.0
 10
270317.0
 20
345886.98
 10
270313.51
 20
345890.0900000001
 10
270311.31
 20
345887.79
 10
270310.31
 20
345888.5900000001
 10
270306.21
 20
345884.0900000001
  0
LWPOLYLINE
  5
E2
330
6F
100
AcDbEntity
  8
25_-_BUILDING
100
AcDbPolyline
 90
       10
 70
     0
 43
0.0
 10
270310.79
 20
345904.98
 10
270305.61
 20
345902.09
 10
270304.23
 20
345904.41
 10
270301.91
 20
345903.0300000001
 10
270300.19
 20
345905.91
 10
270298.71
 20
345905.19
 10
270296.91
 20
345908.29
 10
270292.81
 20
345905.99
 10
270291.3800000001
 20
345908.47
 10
270287.7
 20
345906.42
  0
LWPOLYLINE
  5
EE
330
6F
100
AcDbEntity
  8
02_-_GENERAL_FEATURE
100
AcDbPolyline
 90
        5
 70
     0
 43
0.0
 10
270276.63
 20
345887.61
 10
270275.4
 20
345886.46
 10
270278.41
 20
345883.99
 10
270279.01
 20
345884.99
 10
270281.61
 20
345883.19
  0
LINE
  5
F5
330
6F
100
AcDbEntity
  8
02_-_GENERAL_FEATURE
100
AcDbLine
 10
270260.01
 20
345887.39
 30
0.0
 11
270265.37
 21
345895.58
 31
0.0
  0
LINE
  5
F6
330
6F
100
AcDbEntity
  8
02_-_GENERAL_FEATURE
100
AcDbLine
 10
270301.21
 20
345881.19
 30
0.0
 11
270302.69
 21
345879.92
 31
0.0
  0
LINE
  5
F7
330
6F
100
AcDbEntity
  8
11_-_NETWORK_OR_POLYGON_CLOSING
100
AcDbLine
 10
270234.97
 20
345887.25
 30
0.0
 11
270228.63
 21
345876.84
 31
0.0
  0
LINE
  5
F8
330
6F
100
AcDbEntity
  8
25_-_BUILDING
100
AcDbLine
 10
270175.31
 20
345873.22
 30
0.0
 11
270175.85
 21
345874.06
 31
0.0
  0
LWPOLYLINE
  5
F9
330
6F
100
AcDbEntity
  8
02_-_GENERAL_FEATURE
100
AcDbPolyline
 90
        3
 70
     0
 43
0.0
 10
270167.0
 20
345905.0400000001
 10
270167.8
 20
345905.1800000001
 10
270168.5
 20
345905.1800000001
  0
LINE
  5
FE
330
6F
100
AcDbEntity
  8
11_-_NETWORK_OR_POLYGON_CLOSING
100
AcDbLine
 10
270187.17
 20
345895.44
 30
0.0
 11
270187.21
 21
345906.5800000001
 31
0.0
  0
LWPOLYLINE
  5
FF
330
6F
100
AcDbEntity
  8
22_-_ROAD_OR_TRACK
100
AcDbPolyline
 90
        9
 70
     0
 43
0.0
 10
270192.12
 20
345891.67
 10
270193.0
 20
345891.08
 10
270195.2
 20
345890.08
 10
270211.4
 20
345882.88
 10
270214.7
 20
345881.58
 10
270216.4000000001
 20
345881.38
 10
270218.3
 20
345881.38
 10
270220.8
 20
345881.48
 10
270223.0
 20
345881.28
  0
LINE
  5
10A
330
6F
100
AcDbEntity
  8
22_-_ROAD_OR_TRACK
100
AcDbLine
 10
270167.0
 20
345916.21
 30
0.0
 11
270171.35
 21
345914.0900000001
 31
0.0
  0
LINE
  5
10B
330
6F
100
AcDbEntity
  8
25_-_BUILDING
100
AcDbLine
 10
270229.24
 20
345960.36
 30
0.0
 11
270231.51
 21
345953.72
 31
0.0
  0
LINE
  5
10C
330
6F
100
AcDbEntity
  8
25_-_BUILDING
100
AcDbLine
 10
270202.2100000001
 20
345881.01
 30
0.0
 11
270207.62
 21
345879.13
 31
0.0
  0
LWPOLYLINE
  5
10D
330
6F
100
AcDbEntity
  8
25_-_BUILDING
100
AcDbPolyline
 90
        4
 70
     0
 43
0.0
 10
270281.4500000001
 20
346016.0
 10
270282.22
 20
346015.0200000001
 10
270280.82
 20
346013.92
 10
270279.23
 20
346016.0
  0
LINE
  5
113
330
6F
100
AcDbEntity
  8
25_-_BUILDING
100
AcDbLine
 10
270277.33
 20
346016.0
 30
0.0
 11
270277.1
 21
346015.82
 31
0.0
  0
LWPOLYLINE
  5
114
330
6F
100
AcDbEntity
  8
02_-_GENERAL_FEATURE
100
AcDbPolyline
 90
        4
 70
     0
 43
0.0
 10
270237.81
 20
345892.69
 10
270237.11
 20
345892.0900000001
 10
270236.61
 20
345891.49
 10
270236.31
 20
345890.89
  0
LWPOLYLINE
  5
11A
330
6F
100
AcDbEntity
  8
02_-_GENERAL_FEATURE
100
AcDbPolyline
 90
        3
 70
     0
 43
0.0
 10
270206.99
 20
345929.7
 10
270206.74
 20
345929.62
 10
270206.73
 20
345929.61
  0
LINE
  5
11F
330
6F
100
AcDbEntity
  8
02_-_GENERAL_FEATURE
100
AcDbLine
 10
270317.0
 20
346009.5900000001
 30
0.0
 11
270316.69
 21
346009.97
 31
0.0
  0
LINE
  5
120
330
6F
100
AcDbEntity
  8
22_-_ROAD_OR_TRACK
100
AcDbLine
 10
270224.7
 20
345889.57
 30
0.0
 11
270226.2000000001
 21
345889.8700000001
 31
0.0
  0
LINE
  5
121
330
6F
100
AcDbEntity
  8
25_-_BUILDING
100
AcDbLine
 10
270191.9500000001
 20
345947.23
 30
0.0
 11
270190.31
 21
345952.93
 31
0.0
  0
LINE
  5
122
330
6F
100
AcDbEntity
  8
25_-_BUILDING
100
AcDbLine
 10
270275.61
 20
345872.29
 30
0.0
 11
270279.61
 21
345868.49
 31
0.0
  0
LWPOLYLINE
  5
123
330
6F
100
AcDbEntity
  8
25_-_BUILDING
100
AcDbPolyline
 90
        3
 70
     0
 43
0.0
 10
270276.86
 20
346001.03
 10
270275.54
 20
346000.0
 10
270272.7400000001
 20
345997.7
  0
LWPOLYLINE
  5
128
330
6F
100
AcDbEntity
  8
25_-_BUILDING
100
AcDbPolyline
 90
        4
 70
     0
 43
0.0
 10
270281.73
 20
345924.36
 10
270287.43
 20
345922.66
 10
270295.31
 20
345908.39
 10
270314.81
 20
345918.6900000001
  0
LWPOLYLINE
  5
12E
330
6F
100
AcDbEntity
  8
25_-_BUILDING
100
AcDbPolyline
 90
        4
 70
     0
 43
0.0
 10
270281.42
 20
345867.0
 10
270281.91
 20
345866.5900000001
 10
270286.01
 20
345871.39
 10
270285.31
 20
345871.99
  0
LINE
  5
134
330
6F
100
AcDbEntity
  8
25_-_BUILDING
100
AcDbLine
 10
270285.31
 20
345871.99
 30
0.0
 11
270290.41
 21
345878.0900000001
 31
0.0
  0
LINE
  5
135
330
6F
100
AcDbEntity
  8
25_-_BUILDING
100
AcDbLine
 10
270177.64
 20
345948.9400000001
 30
0.0
 11
270184.4000000001
 21
345951.0700000001
 31
0.0
  0
LWPOLYLINE
  5
136
330
6F
100
AcDbEntity
  8
25_-_BUILDING
100
AcDbPolyline
 90
        8
 70
     0
 43
0.0
 10
270229.24
 20
345960.36
 10
270234.49
 20
345962.2
 10
270234.3900000001
 20
345963.2000000001
 10
270236.29
 20
345963.9000000001
 10
270237.5900000001
 20
345960.2
 10
270235.89
 20
345959.5
 10
270237.29
 20
345955.7
 10
270231.51
 20
345953.72
  0
LINE
  5
140
330
6F
100
AcDbEntity
  8
25_-_BUILDING
100
AcDbLine
 10
270301.14
 20
345917.5
 30
0.0
 11
270298.24
 21
345922.9
 31
0.0
  0
LWPOLYLINE
  5
141
330
6F
100
AcDbEntity
  8
25_-_BUILDING
100
AcDbPolyline
 90
        4
 70
     0
 43
0.0
 10
270305.33
 20
345926.91
 10
270308.24
 20
345928.5
 10
270307.1400000001
 20
345930.6
 10
270309.14
 20
345931.8000000001
  0
LINE
  5
147
330
6F
100
AcDbEntity
  8
25_-_BUILDING
100
AcDbLine
 10
270172.35
 20
345940.96
 30
0.0
 11
270167.0
 21
345939.25
 31
0.0
  0
LINE
  5
148
330
6F
100
AcDbEntity
  8
25_-_BUILDING
100
AcDbLine
 10
270167.0
 20
345945.5800000001
 30
0.0
 11
270170.56
 21
345946.7
 31
0.0
  0
LWPOLYLINE
  5
149
330
6F
100
AcDbEntity
  8
25_-_BUILDING
100
AcDbPolyline
 90
        3
 70
     0
 43
0.0
 10
270199.6
 20
345873.38
 10
270197.3300000001
 20
345874.1500000001
 10
270195.35
 20
345868.7600000001
  0
LWPOLYLINE
  5
14E
330
6F
100
AcDbEntity
  8
25_-_BUILDING
100
AcDbPolyline
 90
        3
 70
     0
 43
0.0
 10
270214.6900000001
 20
345868.44
 10
270213.5
 20
345868.88
 10
270212.45
 20
345866.0
  0
LWPOLYLINE
  5
153
330
6F
100
AcDbEntity
  8
25_-_BUILDING
100
AcDbPolyline
 90
        6
 70
     0
 43
0.0
 10
270221.2
 20
345895.67
 10
270220.9
 20
345894.97
 10
270217.7000000001
 20
345893.57
 10
270213.6
 20
345895.2700000001
 10
270212.9000000001
 20
345898.57
 10
270213.2000000001
 20
345899.47
  0
LINE
  5
15B
330
6F
100
AcDbEntity
  8
25_-_BUILDING
100
AcDbLine
 10
270178.11
 20
345877.6
 30
0.0
 11
270184.5
 21
345887.5800000001
 31
0.0
  0
LWPOLYLINE
  5
15C
330
6F
100
AcDbEntity
  8
25_-_BUILDING
100
AcDbPolyline
 90
        3
 70
     0
 43
0.0
 10
270268.52
 20
346011.42
 10
270265.92
 20
346009.42
 10
270264.58
 20
346008.3400000001
  0
LINE
  5
161
330
6F
100
AcDbEntity
  8
25_-_BUILDING
100
AcDbLine
 10
270283.71
 20
346016.0
 30
0.0
 11
270283.62
 21
346015.92
 31
0.0
  0
LWPOLYLINE
  5
162
330
6F
100
AcDbEntity
  8
25_-_BUILDING
100
AcDbPolyline
 90
        3
 70
     0
 43
0.0
 10
270264.58
 20
346008.3400000001
 10
270266.15
 20
346006.39
 10
270266.46
 20
346006.64
  0
LWPOLYLINE
  5
167
330
6F
100
AcDbEntity
  8
25_-_BUILDING
100
AcDbPolyline
 90
        4
 70
     0
 43
0.0
 10
270235.91
 20
345910.0900000001
 10
270233.55
 20
345904.84
 10
270216.77
 20
345912.38
 10
270219.13
 20
345917.64
  0
LINE
  5
16D
330
6F
100
AcDbEntity
  8
02_-_GENERAL_FEATURE
100
AcDbLine
 10
270199.0900000001
 20
345950.6
 30
0.0
 11
270203.59
 21
345938.3
 31
0.0
  0
LINE
  5
16E
330
6F
100
AcDbEntity
  8
02_-_GENERAL_FEATURE
100
AcDbLine
 10
270291.36
 20
345989.82
 30
0.0
 11
270294.86
 21
345992.42
 31
0.0
  0
LINE
  5
16F
330
6F
100
AcDbEntity
  8
02_-_GENERAL_FEATURE
100
AcDbLine
 10
270308.89
 20
346003.97
 30
0.0
 11
270306.88
 21
346002.4000000001
 31
0.0
  0
LINE
  5
170
330
6F
100
AcDbEntity
  8
02_-_GENERAL_FEATURE
100
AcDbLine
 10
270299.26
 20
345995.62
 30
0.0
 11
270303.26
 21
345998.62
 31
0.0
  0
LWPOLYLINE
  5
171
330
6F
100
AcDbEntity
  8
02_-_GENERAL_FEATURE
100
AcDbPolyline
 90
        4
 70
     0
 43
0.0
 10
270194.91
 20
345950.41
 10
270197.09
 20
345951.1
 10
270197.49
 20
345950.1
 10
270199.0900000001
 20
345950.6
  0
LINE
  5
177
330
6F
100
AcDbEntity
  8
02_-_GENERAL_FEATURE
100
AcDbLine
 10
270241.71
 20
345906.0900000001
 30
0.0
 11
270240.81
 21
345906.99
 31
0.0
  0
LINE
  5
178
330
6F
100
AcDbEntity
  8
02_-_GENERAL_FEATURE
100
AcDbLine
 10
270314.19
 20
346008.0700000001
 30
0.0
 11
270315.29
 21
346008.87
 31
0.0
  0
LINE
  5
179
330
6F
100
AcDbEntity
  8
11_-_NETWORK_OR_POLYGON_CLOSING
100
AcDbLine
 10
270281.73
 20
345924.36
 30
0.0
 11
270292.1400000001
 21
345930.8
 31
0.0
  0
LWPOLYLINE
  5
17A
330
6F
100
AcDbEntity
  8
25_-_BUILDING
100
AcDbPolyline
 90
        3
 70
     0
 43
0.0
 10
270268.3400000001
 20
346004.3000000001
 10
270268.02
 20
346004.05
 10
270270.91
 20
346000.0
  0
LINE
  5
17F
330
6F
100
AcDbEntity
  8
25_-_BUILDING
100
AcDbLine
 10
270267.06
 20
345881.4500000001
 30
0.0
 11
270265.49
 21
345882.77
 31
0.0
  0
LINE
  5
180
330
6F
100
AcDbEntity
  8
25_-_BUILDING
100
AcDbLine
 10
270286.11
 20
345881.69
 30
0.0
 11
270282.51
 21
345877.49
 31
0.0
  0
LWPOLYLINE
  5
181
330
6F
100
AcDbEntity
  8
02_-_GENERAL_FEATURE
100
AcDbPolyline
 90
       31
 70
     0
 43
0.0
 10
270260.49
 20
346016.0
 10
270258.87
 20
346013.8
 10
270253.54
 20
346007.22
 10
270250.73
 20
346002.51
 10
270249.18
 20
346000.0
 10
270248.66
 20
345999.31
 10
270247.13
 20
345997.93
 10
270244.52
 20
345995.05
 10
270243.1
 20
345993.91
 10
270239.1
 20
345991.25
 10
270237.75
 20
345990.25
 10
270235.25
 20
345988.3
 10
270229.99
 20
345984.41
 10
270225.0900000001
 20
345980.89
 10
270220.3300000001
 20
345978.1200000001
 10
270212.37
 20
345974.36
 10
270210.41
 20
345973.67
 10
270208.53
 20
345973.5600000001
 10
270205.92
 20
345973.24
 10
270202.66
 20
345972.76
 10
270196.68
 20
345972.0
 10
270189.89
 20
345970.99
 10
270186.21
 20
345970.3800000001
 10
270181.8900000001
 20
345969.38
 10
270178.05
 20
345968.6900000001
 10
270177.9500000001
 20
345969.16
 10
270175.88
 20
345968.7300000001
 10
270175.83
 20
345968.9
 10
270169.9
 20
345967.9000000001
 10
270167.7700000001
 20
345967.44
 10
270167.0
 20
345967.25
  0
LINE
  5
1A2
330
6F
100
AcDbEntity
  8
02_-_GENERAL_FEATURE
100
AcDbLine
 10
270214.0900000001
 20
345941.9
 30
0.0
 11
270203.59
 21
345938.3
 31
0.0
  0
LWPOLYLINE
  5
1A3
330
6F
100
AcDbEntity
  8
02_-_GENERAL_FEATURE
100
AcDbPolyline
 90
        3
 70
     0
 43
0.0
 10
270195.1
 20
345938.01
 10
270192.99
 20
345944.1
 10
270191.9500000001
 20
345947.23
  0
LINE
  5
1A8
330
6F
100
AcDbEntity
  8
11_-_NETWORK_OR_POLYGON_CLOSING
100
AcDbLine
 10
270304.39
 20
345867.25
 30
0.0
 11
270307.61
 21
345871.99
 31
0.0
  0
LINE
  5
1A9
330
6F
100
AcDbEntity
  8
11_-_NETWORK_OR_POLYGON_CLOSING
100
AcDbLine
 10
270175.49
 20
345955.6
 30
0.0
 11
270172.65
 21
345964.41
 31
0.0
  0
LWPOLYLINE
  5
1AA
330
6F
100
AcDbEntity
  8
22_-_ROAD_OR_TRACK
100
AcDbPolyline
 90
        4
 70
     0
 43
0.0
 10
270236.31
 20
345890.89
 10
270235.51
 20
345889.8900000001
 10
270235.08
 20
345888.91
 10
270234.97
 20
345887.25
  0
LWPOLYLINE
  5
1B0
330
6F
100
AcDbEntity
  8
22_-_ROAD_OR_TRACK
100
AcDbPolyline
 90
       19
 70
     0
 43
0.0
 10
270199.27
 20
345934.0
 10
270207.78
 20
345937.48
 10
270223.0
 20
345943.0
 10
270225.45
 20
345943.89
 10
270233.04
 20
345946.78
 10
270233.85
 20
345947.09
 10
270241.65
 20
345949.9500000001
 10
270251.0
 20
345953.3800000001
 10
270253.75
 20
345954.3900000001
 10
270260.35
 20
345956.69
 10
270265.45
 20
345958.69
 10
270273.8200000001
 20
345962.07
 10
270276.82
 20
345963.67
 10
270282.22
 20
345966.97
 10
270287.8
 20
345970.8900000001
 10
270295.47
 20
345976.92
 10
270300.22
 20
345981.97
 10
270302.72
 20
345984.5700000001
 10
270305.35
 20
345987.55
  0
LINE
  5
1C5
330
6F
100
AcDbEntity
  8
25_-_BUILDING
100
AcDbLine
 10
270186.13
 20
345945.37
 30
0.0
 11
270179.47
 21
345943.24
 31
0.0
  0
LINE
  5
1C6
330
6F
100
AcDbEntity
  8
25_-_BUILDING
100
AcDbLine
 10
270175.85
 20
345874.06
 30
0.0
 11
270178.11
 21
345877.6
 31
0.0
  0
LINE
  5
1C7
330
6F
100
AcDbEntity
  8
25_-_BUILDING
100
AcDbLine
 10
270289.5300000001
 20
346016.0
 30
0.0
 11
270291.96
 21
346012.8
 31
0.0
  0
LINE
  5
1C8
330
6F
100
AcDbEntity
  8
25_-_BUILDING
100
AcDbLine
 10
270277.1
 20
346015.82
 30
0.0
 11
270284.0200000001
 21
346006.47
 31
0.0
  0
LINE
  5
1C9
330
6F
100
AcDbEntity
  8
25_-_BUILDING
100
AcDbLine
 10
270272.02
 20
346007.12
 30
0.0
 11
270268.52
 21
346011.42
 31
0.0
  0
LWPOLYLINE
  5
1CA
330
6F
100
AcDbEntity
  8
02_-_GENERAL_FEATURE
100
AcDbPolyline
 90
        3
 70
     0
 43
0.0
 10
270300.72
 20
345986.1400000001
 10
270303.6
 20
345989.1900000001
 10
270305.35
 20
345987.55
  0
LINE
  5
1CF
330
6F
100
AcDbEntity
  8
02_-_GENERAL_FEATURE
100
AcDbLine
 10
270305.29
 20
346004.2700000001
 30
0.0
 11
270296.07
 21
346016.0
 31
0.0
  0
LINE
  5
1D0
330
6F
100
AcDbEntity
  8
02_-_GENERAL_FEATURE
100
AcDbLine
 10
270314.19
 20
346008.0700000001
 30
0.0
 11
270310.39
 21
346005.07
 31
0.0
  0
LWPOLYLINE
  5
1D1
330
6F
100
AcDbEntity
  8
25_-_BUILDING
100
AcDbPolyline
 90
        3
 70
     0
 43
0.0
 10
270294.24
 20
345926.9000000001
 10
270296.84
 20
345922.1
 10
270298.24
 20
345922.9
  0
LINE
  5
1D6
330
6F
100
AcDbEntity
  8
02_-_GENERAL_FEATURE
100
AcDbLine
 10
270243.79
 20
345910.31
 30
0.0
 11
270244.31
 21
345910.89
 31
0.0
  0
LINE
  5
1D7
330
6F
100
AcDbEntity
  8
02_-_GENERAL_FEATURE
100
AcDbLine
 10
270269.8
 20
345990.37
 30
0.0
 11
270283.69
 21
345970.9
 31
0.0
  0
LWPOLYLINE
  5
1D8
330
6F
100
AcDbEntity
  8
02_-_GENERAL_FEATURE
100
AcDbPolyline
 90
        8
 70
     0
 43
0.0
 10
270237.4000000001
 20
345938.7100000001
 10
270238.9500000001
 20
345934.22
 10
270238.0300000001
 20
345933.91
 10
270236.97
 20
345936.8100000001
 10
270236.69
 20
345937.8400000001
 10
270236.7000000001
 20
345938.5200000001
 10
270236.92
 20
345939.38
 10
270237.06
 20
345939.59
  0
LWPOLYLINE
  5
1E2
330
6F
100
AcDbEntity
  8
02_-_GENERAL_FEATURE
100
AcDbPolyline
 90
        3
 70
     0
 43
0.0
 10
270207.9400000001
 20
345928.23
 10
270208.33
 20
345928.37
 10
270226.01
 20
345934.72
  0
LINE
  5
1E7
330
6F
100
AcDbEntity
  8
11_-_NETWORK_OR_POLYGON_CLOSING
100
AcDbLine
 10
270198.31
 20
345902.39
 30
0.0
 11
270192.12
 21
345891.67
 31
0.0
  0
LWPOLYLINE
  5
1E8
330
6F
100
AcDbEntity
  8
22_-_ROAD_OR_TRACK
100
AcDbPolyline
 90
       10
 70
     0
 43
0.0
 10
270198.31
 20
345902.39
 10
270198.62
 20
345901.76
 10
270199.5200000001
 20
345900.06
 10
270200.72
 20
345898.86
 10
270206.9
 20
345895.97
 10
270217.9
 20
345890.87
 10
270220.9
 20
345889.8700000001
 10
270222.2
 20
345889.57
 10
270223.4000000001
 20
345889.47
 10
270224.7
 20
345889.57
  0
LINE
  5
1F4
330
6F
100
AcDbEntity
  8
25_-_BUILDING
100
AcDbLine
 10
270288.24
 20
346009.8400000001
 30
0.0
 11
270283.62
 21
346015.92
 31
0.0
  0
LINE
  5
1F5
330
6F
100
AcDbEntity
  8
25_-_BUILDING
100
AcDbLine
 10
270300.74
 20
345924.4
 30
0.0
 11
270305.33
 21
345926.91
 31
0.0
  0
LINE
  5
1F6
330
6F
100
AcDbEntity
  8
25_-_BUILDING
100
AcDbLine
 10
270315.44
 20
345931.2000000001
 30
0.0
 11
270317.0
 21
345932.13
 31
0.0
  0
LINE
  5
1F7
330
6F
100
AcDbEntity
  8
25_-_BUILDING
100
AcDbLine
 10
270314.23
 20
345943.01
 30
0.0
 11
270310.14
 21
345940.7000000001
 31
0.0
  0
LINE
  5
1F8
330
6F
100
AcDbEntity
  8
02_-_GENERAL_FEATURE
100
AcDbLine
 10
270273.53
 20
345995.33
 30
0.0
 11
270282.9600000001
 21
345983.62
 31
0.0
  0
LINE
  5
1F9
330
6F
100
AcDbEntity
  8
02_-_GENERAL_FEATURE
100
AcDbLine
 10
270294.86
 20
345992.42
 30
0.0
 11
270300.72
 21
345986.1400000001
 31
0.0
  0
LWPOLYLINE
  5
1FA
330
6F
100
AcDbEntity
  8
02_-_GENERAL_FEATURE
100
AcDbPolyline
 90
        4
 70
     0
 43
0.0
 10
270315.56
 20
345991.39
 10
270313.82
 20
345989.0700000001
 10
270310.22
 20
345985.07
 10
270310.0
 20
345984.8400000001
  0
LINE
  5
200
330
6F
100
AcDbEntity
  8
02_-_GENERAL_FEATURE
100
AcDbLine
 10
270272.62
 20
346014.72
 30
0.0
 11
270275.98
 21
346010.23
 31
0.0
  0
LINE
  5
201
330
6F
100
AcDbEntity
  8
25_-_BUILDING
100
AcDbLine
 10
270276.86
 20
346001.03
 30
0.0
 11
270272.02
 21
346007.12
 31
0.0
  0
LINE
  5
202
330
6F
100
AcDbEntity
  8
25_-_BUILDING
100
AcDbLine
 10
270270.91
 20
346000.0
 30
0.0
 11
270272.7400000001
 21
345997.7
 31
0.0
  0
LINE
  5
203
330
6F
100
AcDbEntity
  8
25_-_BUILDING
100
AcDbLine
 10
270291.96
 20
346012.8
 30
0.0
 11
270288.24
 21
346009.8400000001
 31
0.0
  0
LWPOLYLINE
  5
204
330
6F
100
AcDbEntity
  8
02_-_GENERAL_FEATURE
100
AcDbPolyline
 90
        3
 70
     0
 43
0.0
 10
270280.74
 20
346003.86
 10
270283.81
 20
346000.0
 10
270291.36
 20
345989.82
  0
LWPOLYLINE
  5
209
330
6F
100
AcDbEntity
  8
02_-_GENERAL_FEATURE
100
AcDbPolyline
 90
        3
 70
     0
 43
0.0
 10
270234.29
 20
345972.1
 10
270237.09
 20
345973.5
 10
270244.69
 20
345977.0
  0
LWPOLYLINE
  5
20E
330
6F
100
AcDbEntity
  8
02_-_GENERAL_FEATURE
100
AcDbPolyline
 90
        3
 70
     0
 43
0.0
 10
270276.86
 20
346001.03
 10
270277.77
 20
346000.0
 10
270287.46
 20
345986.92
  0
LINE
  5
213
330
6F
100
AcDbEntity
  8
02_-_GENERAL_FEATURE
100
AcDbLine
 10
270259.39
 20
346000.67
 30
0.0
 11
270264.58
 21
346008.3400000001
 31
0.0
  0
LINE
  5
214
330
6F
100
AcDbEntity
  8
02_-_GENERAL_FEATURE
100
AcDbLine
 10
270301.8800000001
 20
346016.0
 30
0.0
 11
270308.79
 21
346006.87
 31
0.0
  0
LINE
  5
215
330
6F
100
AcDbEntity
  8
02_-_GENERAL_FEATURE
100
AcDbLine
 10
270315.29
 20
346008.87
 30
0.0
 11
270316.69
 21
346009.97
 31
0.0
  0
LINE
  5
216
330
6F
100
AcDbEntity
  8
02_-_GENERAL_FEATURE
100
AcDbLine
 10
270316.69
 20
346009.97
 30
0.0
 11
270315.29
 21
346011.8700000001
 31
0.0
  0
LINE
  5
217
330
6F
100
AcDbEntity
  8
02_-_GENERAL_FEATURE
100
AcDbLine
 10
270310.39
 20
346005.07
 30
0.0
 11
270308.89
 21
346003.97
 31
0.0
  0
LINE
  5
218
330
6F
100
AcDbEntity
  8
02_-_GENERAL_FEATURE
100
AcDbLine
 10
270272.62
 20
346014.72
 30
0.0
 11
270274.18
 21
346016.0
 31
0.0
  0
LWPOLYLINE
  5
219
330
6F
100
AcDbEntity
  8
02_-_GENERAL_FEATURE
100
AcDbPolyline
 90
        4
 70
     0
 43
0.0
 10
270303.26
 20
345998.62
 10
270305.07
 20
346000.0
 10
270307.51
 20
346001.55
 10
270306.88
 20
346002.4000000001
  0
LWPOLYLINE
  5
21F
330
6F
100
AcDbEntity
  8
01_-_GENERAL_SURFACE
100
AcDbPolyline
 90
        3
 70
     0
 43
0.0
 10
270169.98
 20
346016.0
 10
270168.88
 20
346015.5200000001
 10
270167.0
 20
346014.2900000001
  0
LINE
  5
224
330
6F
100
AcDbEntity
  8
25_-_BUILDING
100
AcDbLine
 10
270177.64
 20
345948.9400000001
 30
0.0
 11
270179.47
 21
345943.24
 31
0.0
  0
LINE
  5
225
330
6F
100
AcDbEntity
  8
25_-_BUILDING
100
AcDbLine
 10
270304.8900000001
 20
345885.2
 30
0.0
 11
270301.21
 21
345881.19
 31
0.0
  0
LWPOLYLINE
  5
226
330
6F
100
AcDbEntity
  8
25_-_BUILDING
100
AcDbPolyline
 90
        3
 70
     0
 43
0.0
 10
270190.31
 20
345952.93
 10
270193.69
 20
345954.0
 10
270194.91
 20
345950.41
  0
LWPOLYLINE
  5
22B
330
6F
100
AcDbEntity
  8
25_-_BUILDING
100
AcDbPolyline
 90
        4
 70
     0
 43
0.0
 10
270184.5
 20
345887.5800000001
 10
270180.3
 20
345890.38
 10
270178.8
 20
345887.98
 10
270167.0
 20
345895.55
  0
LINE
  5
231
330
6F
100
AcDbEntity
  8
25_-_BUILDING
100
AcDbLine
 10
270301.21
 20
345881.19
 30
0.0
 11
270298.01
 21
345884.19
 31
0.0
  0
LWPOLYLINE
  5
232
330
6F
100
AcDbEntity
  8
02_-_GENERAL_FEATURE
100
AcDbPolyline
 90
        3
 70
     0
 43
0.0
 10
270285.68
 20
345932.2500000001
 10
270292.81
 20
345936.1900000001
 10
270317.0
 20
345949.69
  0
LWPOLYLINE
  5
237
330
6F
100
AcDbEntity
  8
02_-_GENERAL_FEATURE
100
AcDbPolyline
 90
        3
 70
     0
 43
0.0
 10
270281.21
 20
345899.19
 10
270283.5800000001
 20
345896.18
 10
270276.63
 20
345887.61
  0
LINE
  5
23C
330
6F
100
AcDbEntity
  8
02_-_GENERAL_FEATURE
100
AcDbLine
 10
270299.38
 20
345901.1
 30
0.0
 11
270307.61
 21
345895.99
 31
0.0
  0
LINE
  5
23D
330
6F
100
AcDbEntity
  8
02_-_GENERAL_FEATURE
100
AcDbLine
 10
270307.61
 20
345895.99
 30
0.0
 11
270305.71
 21
345892.79
 31
0.0
  0
LWPOLYLINE
  5
23E
330
6F
100
AcDbEntity
  8
02_-_GENERAL_FEATURE
100
AcDbPolyline
 90
        3
 70
     0
 43
0.0
 10
270310.79
 20
345904.98
 10
270312.0200000001
 20
345902.29
 10
270317.0
 20
345905.5900000001
  0
LINE
  5
243
330
6F
100
AcDbEntity
  8
11_-_NETWORK_OR_POLYGON_CLOSING
100
AcDbLine
 10
270290.41
 20
345878.0900000001
 30
0.0
 11
270298.01
 21
345884.19
 31
0.0
  0
LWPOLYLINE
  5
244
330
6F
100
AcDbEntity
  8
14_-_POLITICAL_OR_ADMINISTRATIV
100
AcDbPolyline
 90
       24
 70
     0
 43
0.0
 10
270265.51
 20
345895.59
 10
270268.51
 20
345892.2900000001
 10
270270.5100000001
 20
345892.2900000001
 10
270274.92
 20
345895.59
 10
270276.27
 20
345896.55
 10
270281.21
 20
345899.19
 10
270286.04
 20
345900.43
 10
270289.38
 20
345901.5
 10
270293.58
 20
345902.4
 10
270295.08
 20
345902.5
 10
270296.48
 20
345902.5
 10
270299.18
 20
345902.2
 10
270300.68
 20
345901.9000000001
 10
270302.98
 20
345901.2000000001
 10
270304.8300000001
 20
345899.89
 10
270306.71
 20
345897.6900000001
 10
270308.0100000001
 20
345896.29
 10
270308.41
 20
345895.99
 10
270310.01
 20
345895.0900000001
 10
270311.71
 20
345894.29
 10
270313.61
 20
345893.6900000001
 10
270314.91
 20
345893.49
 10
270316.61
 20
345893.39
 10
270317.0
 20
345893.4600000001
  0
LWPOLYLINE
  5
25E
330
6F
100
AcDbEntity
  8
14_-_POLITICAL_OR_ADMINISTRATIV
100
AcDbPolyline
 90
        4
 70
     0
 43
0.0
 10
270247.51
 20
345879.49
 10
270252.91
 20
345882.49
 10
270254.31
 20
345881.29
 10
270260.01
 20
345887.39
  0
LINE
  5
264
330
6F
100
AcDbEntity
  8
14_-_POLITICAL_OR_ADMINISTRATIV
100
AcDbLine
 10
270260.01
 20
345887.39
 30
0.0
 11
270265.51
 21
345895.59
 31
0.0
  0
LWPOLYLINE
  5
265
330
6F
100
AcDbEntity
  8
22_-_ROAD_OR_TRACK
100
AcDbPolyline
 90
        8
 70
     0
 43
0.0
 10
270234.97
 20
345887.25
 10
270235.23
 20
345885.92
 10
270235.9400000001
 20
345883.97
 10
270236.3200000001
 20
345883.3300000001
 10
270237.36
 20
345882.3000000001
 10
270241.63
 20
345879.69
 10
270244.16
 20
345878.2
 10
270245.0300000001
 20
345877.5900000001
  0
LINE
  5
26F
330
6F
100
AcDbEntity
  8
25_-_BUILDING
100
AcDbLine
 10
270302.69
 20
345879.92
 30
0.0
 11
270301.9600000001
 21
345879.05
 31
0.0
  0
LINE
  5
270
330
6F
100
AcDbEntity
  8
11_-_NETWORK_OR_POLYGON_CLOSING
100
AcDbLine
 10
270168.5
 20
345905.1800000001
 30
0.0
 11
270171.35
 21
345914.0900000001
 31
0.0
  0
LWPOLYLINE
  5
271
330
6F
100
AcDbEntity
  8
22_-_ROAD_OR_TRACK
100
AcDbPolyline
 90
        6
 70
     0
 43
0.0
 10
270171.35
 20
345914.0900000001
 10
270181.12
 20
345907.66
 10
270182.72
 20
345906.96
 10
270183.92
 20
345906.5600000001
 10
270185.5200000001
 20
345906.4600000001
 10
270187.21
 20
345906.5800000001
  0
LINE
  5
279
330
6F
100
AcDbEntity
  8
25_-_BUILDING
100
AcDbLine
 10
270195.35
 20
345868.7600000001
 30
0.0
 11
270195.1
 21
345868.0800000001
 31
0.0
  0
LINE
  5
27A
330
6F
100
AcDbEntity
  8
25_-_BUILDING
100
AcDbLine
 10
270204.7800000001
 20
345871.5
 30
0.0
 11
270203.1
 21
345872.08
 31
0.0
  0
LINE
  5
27B
330
6F
100
AcDbEntity
  8
25_-_BUILDING
100
AcDbLine
 10
270206.3900000001
 20
345870.9600000001
 30
0.0
 11
270204.7800000001
 21
345871.5
 31
0.0
  0
LINE
  5
27C
330
6F
100
AcDbEntity
  8
25_-_BUILDING
100
AcDbLine
 10
270216.5
 20
345867.78
 30
0.0
 11
270214.6900000001
 21
345868.44
 31
0.0
  0
LWPOLYLINE
  5
27D
330
6F
100
AcDbEntity
  8
25_-_BUILDING
100
AcDbPolyline
 90
        3
 70
     0
 43
0.0
 10
270219.2
 20
345874.97
 10
270224.7
 20
345872.98
 10
270225.0
 20
345872.68
  0
LWPOLYLINE
  5
282
330
6F
100
AcDbEntity
  8
25_-_BUILDING
100
AcDbPolyline
 90
        5
 70
     0
 43
0.0
 10
270193.79
 20
345868.5600000001
 10
270192.1
 20
345869.18
 10
270194.22
 20
345875.21
 10
270184.22
 20
345878.6
 10
270187.1
 20
345886.2800000001
  0
LINE
  5
289
330
6F
100
AcDbEntity
  8
25_-_BUILDING
100
AcDbLine
 10
270197.5
 20
345868.0800000001
 30
0.0
 11
270199.6
 21
345873.38
 31
0.0
  0
LWPOLYLINE
  5
28A
330
6F
100
AcDbEntity
  8
22_-_ROAD_OR_TRACK
100
AcDbPolyline
 90
        6
 70
     0
 43
0.0
 10
270229.12
 20
345875.39
 10
270229.3
 20
345874.68
 10
270229.3
 20
345872.5800000001
 10
270229.1
 20
345870.5800000001
 10
270228.29
 20
345867.0100000001
 10
270227.86
 20
345866.0
  0
LWPOLYLINE
  5
292
330
6F
100
AcDbEntity
  8
22_-_ROAD_OR_TRACK
100
AcDbPolyline
 90
        5
 70
     0
 43
0.0
 10
270168.5
 20
345905.1800000001
 10
270171.2000000001
 20
345904.18
 10
270182.6
 20
345898.88
 10
270184.7000000001
 20
345897.48
 10
270187.17
 20
345895.44
  0
LINE
  5
299
330
6F
100
AcDbEntity
  8
25_-_BUILDING
100
AcDbLine
 10
270199.6
 20
345873.38
 30
0.0
 11
270202.2100000001
 21
345881.01
 31
0.0
  0
LINE
  5
29A
330
6F
100
AcDbEntity
  8
25_-_BUILDING
100
AcDbLine
 10
270266.61
 20
345877.19
 30
0.0
 11
270268.91
 21
345879.89
 31
0.0
  0
LWPOLYLINE
  5
29B
330
6F
100
AcDbEntity
  8
25_-_BUILDING
100
AcDbPolyline
 90
        3
 70
     0
 43
0.0
 10
270277.94
 20
345866.0
 10
270277.71
 20
345866.19
 10
270279.61
 20
345868.49
  0
LWPOLYLINE
  5
2A0
330
6F
100
AcDbEntity
  8
25_-_BUILDING
100
AcDbPolyline
 90
        5
 70
     0
 43
0.0
 10
270294.79
 20
345869.25
 10
270293.79
 20
345868.15
 10
270291.5900000001
 20
345870.15
 10
270290.79
 20
345869.15
 10
270288.99
 20
345870.75
  0
LINE
  5
2A7
330
6F
100
AcDbEntity
  8
25_-_BUILDING
100
AcDbLine
 10
270303.25
 20
345866.0
 30
0.0
 11
270304.39
 21
345867.25
 31
0.0
  0
LINE
  5
2A8
330
6F
100
AcDbEntity
  8
25_-_BUILDING
100
AcDbLine
 10
270195.1
 20
345868.0800000001
 30
0.0
 11
270193.79
 21
345868.5600000001
 31
0.0
  0
LWPOLYLINE
  5
2A9
330
6F
100
AcDbEntity
  8
25_-_BUILDING
100
AcDbPolyline
 90
        3
 70
     0
 43
0.0
 10
270167.0
 20
345878.06
 10
270169.29
 20
345876.73
 10
270175.31
 20
345873.22
  0
LWPOLYLINE
  5
2AE
330
6F
100
AcDbEntity
  8
02_-_GENERAL_FEATURE
100
AcDbPolyline
 90
        3
 70
     0
 43
0.0
 10
270195.1
 20
345868.0800000001
 10
270195.2
 20
345867.48
 10
270198.49
 20
345866.0
  0
LWPOLYLINE
  5
2B3
330
6F
100
AcDbEntity
  8
02_-_GENERAL_FEATURE
100
AcDbPolyline
 90
        4
 70
     0
 43
0.0
 10
270203.1
 20
345872.08
 10
270201.1
 20
345866.88
 10
270202.8
 20
345866.18
 10
270204.7800000001
 20
345871.5
  0
LINE
  5
2B9
330
6F
100
AcDbEntity
  8
25_-_BUILDING
100
AcDbLine
 10
270314.85
 20
345869.92
 30
0.0
 11
270317.0
 21
345868.35
 31
0.0
  0
LINE
  5
2BA
330
6F
100
AcDbEntity
  8
25_-_BUILDING
100
AcDbLine
 10
270294.79
 20
345869.25
 30
0.0
 11
270298.51
 21
345866.0
 31
0.0
  0
LINE
  5
2BB
330
6F
100
AcDbEntity
  8
25_-_BUILDING
100
AcDbLine
 10
270290.08
 20
345866.14
 30
0.0
 11
270290.24
 21
345866.0
 31
0.0
  0
LINE
  5
2BC
330
6F
100
AcDbEntity
  8
25_-_BUILDING
100
AcDbLine
 10
270290.69
 20
345872.85
 30
0.0
 11
270294.79
 21
345869.25
 31
0.0
  0
LINE
  5
2BD
330
6F
100
AcDbEntity
  8
25_-_BUILDING
100
AcDbLine
 10
270290.41
 20
345878.0900000001
 30
0.0
 11
270286.11
 21
345881.69
 31
0.0
  0
LINE
  5
2BE
330
6F
100
AcDbEntity
  8
02_-_GENERAL_FEATURE
100
AcDbLine
 10
270290.08
 20
345866.14
 30
0.0
 11
270289.95
 21
345866.0
 31
0.0
  0
LINE
  5
2BF
330
6F
100
AcDbEntity
  8
02_-_GENERAL_FEATURE
100
AcDbLine
 10
270285.67
 20
345866.0
 30
0.0
 11
270285.1900000001
 21
345866.4500000001
 31
0.0
  0
LINE
  5
2C0
330
6F
100
AcDbEntity
  8
02_-_GENERAL_FEATURE
100
AcDbLine
 10
270285.1900000001
 20
345866.4500000001
 30
0.0
 11
270287.19
 21
345868.6500000001
 31
0.0
  0
LINE
  5
2C1
330
6F
100
AcDbEntity
  8
02_-_GENERAL_FEATURE
100
AcDbLine
 10
270288.99
 20
345870.75
 30
0.0
 11
270290.69
 21
345872.85
 31
0.0
  0
LINE
  5
2C2
330
6F
100
AcDbEntity
  8
02_-_GENERAL_FEATURE
100
AcDbLine
 10
270275.96
 20
345888.17
 30
0.0
 11
270276.63
 21
345887.61
 31
0.0
  0
LWPOLYLINE
  5
2C3
330
6F
100
AcDbEntity
  8
02_-_GENERAL_FEATURE
100
AcDbPolyline
 90
        3
 70
     0
 43
0.0
 10
270265.49
 20
345882.77
 10
270272.01
 20
345890.5900000001
 10
270270.5100000001
 20
345892.2900000001
  0
LINE
  5
2C8
330
6F
100
AcDbEntity
  8
02_-_GENERAL_FEATURE
100
AcDbLine
 10
270175.31
 20
345873.22
 30
0.0
 11
270172.1
 21
345866.0
 31
0.0
  0
LINE
  5
2C9
330
6F
100
AcDbEntity
  8
25_-_BUILDING
100
AcDbLine
 10
270247.88
 20
345967.66
 30
0.0
 11
270250.2
 21
345960.85
 31
0.0
  0
LINE
  5
2CA
330
6F
100
AcDbEntity
  8
25_-_BUILDING
100
AcDbLine
 10
270184.4000000001
 20
345951.0700000001
 30
0.0
 11
270186.13
 21
345945.37
 31
0.0
  0
LINE
  5
2CB
330
6F
100
AcDbEntity
  8
25_-_BUILDING
100
AcDbLine
 10
270299.54
 20
345926.5
 30
0.0
 11
270300.74
 21
345924.4
 31
0.0
  0
LWPOLYLINE
  5
2CC
330
6F
100
AcDbEntity
  8
25_-_BUILDING
100
AcDbPolyline
 90
        4
 70
     0
 43
0.0
 10
270250.2
 20
345960.85
 10
270243.19
 20
345958.5
 10
270240.89
 20
345965.3
 10
270247.88
 20
345967.66
  0
LINE
  5
2D2
330
6F
100
AcDbEntity
  8
02_-_GENERAL_FEATURE
100
AcDbLine
 10
270234.29
 20
345972.1
 30
0.0
 11
270241.27
 21
345952.58
 31
0.0
  0
LWPOLYLINE
  5
2D3
330
6F
100
AcDbEntity
  8
02_-_GENERAL_FEATURE
100
AcDbPolyline
 90
        3
 70
     0
 43
0.0
 10
270224.3300000001
 20
345946.0700000001
 10
270222.8900000001
 20
345945.0
 10
270214.0900000001
 20
345941.9
  0
LINE
  5
2D8
330
6F
100
AcDbEntity
  8
02_-_GENERAL_FEATURE
100
AcDbLine
 10
270294.86
 20
345992.42
 30
0.0
 11
270299.26
 21
345995.62
 31
0.0
  0
LINE
  5
2D9
330
6F
100
AcDbEntity
  8
02_-_GENERAL_FEATURE
100
AcDbLine
 10
270203.59
 20
345938.3
 30
0.0
 11
270198.79
 21
345936.7
 31
0.0
  0
LINE
  5
2DA
330
6F
100
AcDbEntity
  8
02_-_GENERAL_FEATURE
100
AcDbLine
 10
270254.0900000001
 20
345981.2
 30
0.0
 11
270257.08
 21
345982.88
 31
0.0
  0
LWPOLYLINE
  5
2DB
330
6F
100
AcDbEntity
  8
11_-_NETWORK_OR_POLYGON_CLOSING
100
AcDbPolyline
 90
        3
 70
     0
 43
0.0
 10
270266.84
 20
345950.56
 10
270274.1500000001
 20
345956.11
 10
270279.35
 20
345959.5700000001
  0
LINE
  5
2E0
330
6F
100
AcDbEntity
  8
25_-_BUILDING
100
AcDbLine
 10
270310.14
 20
345940.7000000001
 30
0.0
 11
270305.55
 21
345938.18
 31
0.0
  0
LINE
  5
2E1
330
6F
100
AcDbEntity
  8
25_-_BUILDING
100
AcDbLine
 10
270295.97
 20
346016.0
 30
0.0
 11
270291.96
 21
346012.8
 31
0.0
  0
LWPOLYLINE
  5
2E2
330
6F
100
AcDbEntity
  8
02_-_GENERAL_FEATURE
100
AcDbPolyline
 90
        3
 70
     0
 43
0.0
 10
270291.96
 20
346012.8
 10
270302.15
 20
346000.0
 10
270303.26
 20
345998.62
  0
LINE
  5
2E7
330
6F
100
AcDbEntity
  8
02_-_GENERAL_FEATURE
100
AcDbLine
 10
270317.0
 20
345989.69
 30
0.0
 11
270315.56
 21
345991.39
 31
0.0
  0
LWPOLYLINE
  5
2E8
330
6F
100
AcDbEntity
  8
02_-_GENERAL_FEATURE
100
AcDbPolyline
 90
        3
 70
     0
 43
0.0
 10
270308.79
 20
346006.87
 10
270312.69
 20
346009.97
 10
270314.19
 20
346008.0700000001
  0
LINE
  5
2ED
330
6F
100
AcDbEntity
  8
02_-_GENERAL_FEATURE
100
AcDbLine
 10
270314.92
 20
346000.65
 30
0.0
 11
270317.0
 21
346003.35
 31
0.0
  0
LINE
  5
2EE
330
6F
100
AcDbEntity
  8
25_-_BUILDING
100
AcDbLine
 10
270225.0
 20
345872.68
 30
0.0
 11
270222.43
 21
345866.0
 31
0.0
  0
LWPOLYLINE
  5
2EF
330
6F
100
AcDbEntity
  8
25_-_BUILDING
100
AcDbPolyline
 90
        4
 70
     0
 43
0.0
 10
270274.31
 20
345874.8900000001
 10
270271.5100000001
 20
345877.19
 10
270269.41
 20
345874.8900000001
 10
270266.61
 20
345877.19
  0
LINE
  5
2F5
330
6F
100
AcDbEntity
  8
25_-_BUILDING
100
AcDbLine
 10
270191.9500000001
 20
345947.23
 30
0.0
 11
270186.13
 21
345945.37
 31
0.0
  0
LWPOLYLINE
  5
2F6
330
6F
100
AcDbEntity
  8
25_-_BUILDING
100
AcDbPolyline
 90
        4
 70
     0
 43
0.0
 10
270210.34
 20
345952.52
 10
270202.89
 20
345950.0
 10
270205.59
 20
345943.0
 10
270212.8
 20
345945.54
  0
LWPOLYLINE
  5
2FC
330
6F
100
AcDbEntity
  8
25_-_BUILDING
100
AcDbPolyline
 90
        5
 70
     0
 43
0.0
 10
270265.37
 20
345895.58
 10
270264.21
 20
345895.0900000001
 10
270263.51
 20
345896.49
 10
270262.61
 20
345895.8900000001
 10
270255.33
 20
345909.7600000001
  0
LWPOLYLINE
  5
303
330
6F
100
AcDbEntity
  8
25_-_BUILDING
100
AcDbPolyline
 90
        4
 70
     0
 43
0.0
 10
270278.74
 20
345904.68
 10
270265.81
 20
345897.59
 10
270266.61
 20
345896.0900000001
 10
270265.37
 20
345895.58
  0
LINE
  5
309
330
6F
100
AcDbEntity
  8
25_-_BUILDING
100
AcDbLine
 10
270268.91
 20
345879.89
 30
0.0
 11
270267.06
 21
345881.4500000001
 31
0.0
  0
LWPOLYLINE
  5
30A
330
6F
100
AcDbEntity
  8
25_-_BUILDING
100
AcDbPolyline
 90
        3
 70
     0
 43
0.0
 10
270223.05
 20
345904.86
 10
270223.2
 20
345905.17
 10
270225.0
 20
345904.17
  0
LINE
  5
30F
330
6F
100
AcDbEntity
  8
02_-_GENERAL_FEATURE
100
AcDbLine
 10
270244.69
 20
345977.0
 30
0.0
 11
270254.0900000001
 21
345981.2
 31
0.0
  0
LINE
  5
310
330
6F
100
AcDbEntity
  8
02_-_GENERAL_FEATURE
100
AcDbLine
 10
270306.88
 20
346002.4000000001
 30
0.0
 11
270305.29
 21
346004.2700000001
 31
0.0
  0
LWPOLYLINE
  5
311
330
6F
100
AcDbEntity
  8
02_-_GENERAL_FEATURE
100
AcDbPolyline
 90
        4
 70
     0
 43
0.0
 10
270172.65
 20
345964.41
 10
270178.5900000001
 20
345965.5
 10
270182.8900000001
 20
345960.2
 10
270184.4000000001
 20
345951.0700000001
  0
LINE
  5
317
330
6F
100
AcDbEntity
  8
02_-_GENERAL_FEATURE
100
AcDbLine
 10
270241.71
 20
345906.0900000001
 30
0.0
 11
270242.69
 21
345907.22
 31
0.0
  0
LINE
  5
318
330
6F
100
AcDbEntity
  8
02_-_GENERAL_FEATURE
100
AcDbLine
 10
270229.5
 20
345891.57
 30
0.0
 11
270241.71
 21
345906.0900000001
 31
0.0
  0
LWPOLYLINE
  5
319
330
6F
100
AcDbEntity
  8
02_-_GENERAL_FEATURE
100
AcDbPolyline
 90
        3
 70
     0
 43
0.0
 10
270226.69
 20
345967.8
 10
270231.09
 20
345970.3000000001
 10
270234.29
 20
345972.1
  0
LINE
  5
31E
330
6F
100
AcDbEntity
  8
02_-_GENERAL_FEATURE
100
AcDbLine
 10
270224.3300000001
 20
345946.0700000001
 30
0.0
 11
270218.29
 21
345963.1
 31
0.0
  0
LWPOLYLINE
  5
31F
330
6F
100
AcDbEntity
  8
02_-_GENERAL_FEATURE
100
AcDbPolyline
 90
        5
 70
     0
 43
0.0
 10
270182.8
 20
345875.58
 10
270190.8
 20
345872.4800000001
 10
270189.4000000001
 20
345868.48
 10
270193.0
 20
345867.18
 10
270193.79
 20
345868.5600000001
  0
LWPOLYLINE
  5
326
330
6F
100
AcDbEntity
  8
02_-_GENERAL_FEATURE
100
AcDbPolyline
 90
        4
 70
     0
 43
0.0
 10
270215.44
 20
345909.85
 10
270217.2
 20
345908.8700000001
 10
270218.2
 20
345911.17
 10
270216.5
 20
345911.97
  0
LWPOLYLINE
  5
32C
330
6F
100
AcDbEntity
  8
02_-_GENERAL_FEATURE
100
AcDbPolyline
 90
        4
 70
     0
 43
0.0
 10
270228.8
 20
345906.17
 10
270231.2
 20
345905.27
 10
270230.1
 20
345903.07
 10
270227.82
 20
345904.01
  0
LWPOLYLINE
  5
332
330
6F
100
AcDbEntity
  8
02_-_GENERAL_FEATURE
100
AcDbPolyline
 90
        4
 70
     0
 43
0.0
 10
270281.21
 20
345899.19
 10
270285.61
 20
345900.29
 10
270289.38
 20
345901.5
 10
270299.38
 20
345901.1
  0
LINE
  5
338
330
6F
100
AcDbEntity
  8
02_-_GENERAL_FEATURE
100
AcDbLine
 10
270305.0
 20
345916.5100000001
 30
0.0
 11
270303.64
 21
345916.1
 31
0.0
  0
LINE
  5
339
330
6F
100
AcDbEntity
  8
11_-_NETWORK_OR_POLYGON_CLOSING
100
AcDbLine
 10
270246.01
 20
345902.59
 30
0.0
 11
270255.33
 21
345909.7600000001
 31
0.0
  0
LINE
  5
33A
330
6F
100
AcDbEntity
  8
11_-_NETWORK_OR_POLYGON_CLOSING
100
AcDbLine
 10
270311.43
 20
345869.3
 30
0.0
 11
270308.61
 21
345871.49
 31
0.0
  0
LINE
  5
33B
330
6F
100
AcDbEntity
  8
11_-_NETWORK_OR_POLYGON_CLOSING
100
AcDbLine
 10
270168.5
 20
345905.1800000001
 30
0.0
 11
270167.0
 21
345905.6
 31
0.0
  0
LINE
  5
33C
330
6F
100
AcDbEntity
  8
11_-_NETWORK_OR_POLYGON_CLOSING
100
AcDbLine
 10
270273.53
 20
345995.33
 30
0.0
 11
270272.7400000001
 21
345997.7
 31
0.0
  0
LWPOLYLINE
  5
33D
330
6F
100
AcDbEntity
  8
22_-_ROAD_OR_TRACK
100
AcDbPolyline
 90
        3
 70
     0
 43
0.0
 10
270308.61
 20
345871.49
 10
270309.21
 20
345871.6900000001
 10
270317.0
 20
345880.28
  0
LINE
  5
342
330
6F
100
AcDbEntity
  8
25_-_BUILDING
100
AcDbLine
 10
270179.47
 20
345943.24
 30
0.0
 11
270172.35
 21
345940.96
 31
0.0
  0
LWPOLYLINE
  5
343
330
6F
100
AcDbEntity
  8
25_-_BUILDING
100
AcDbPolyline
 90
        4
 70
     0
 43
0.0
 10
270215.44
 20
345909.85
 10
270215.3
 20
345909.5700000001
 10
270214.9
 20
345908.97
 10
270217.0
 20
345907.77
  0
LINE
  5
349
330
6F
100
AcDbEntity
  8
25_-_BUILDING
100
AcDbLine
 10
270225.0
 20
345904.17
 30
0.0
 11
270225.39
 21
345904.98
 31
0.0
  0
LINE
  5
34A
330
6F
100
AcDbEntity
  8
02_-_GENERAL_FEATURE
100
AcDbLine
 10
270240.81
 20
345906.99
 30
0.0
 11
270241.85
 21
345908.1500000001
 31
0.0
  0
LWPOLYLINE
  5
34B
330
6F
100
AcDbEntity
  8
02_-_GENERAL_FEATURE
100
AcDbPolyline
 90
        3
 70
     0
 43
0.0
 10
270242.69
 20
345907.22
 10
270244.31
 20
345909.09
 10
270244.58
 20
345909.3300000001
  0
LWPOLYLINE
  5
350
330
6F
100
AcDbEntity
  8
02_-_GENERAL_FEATURE
100
AcDbPolyline
 90
        6
 70
     0
 43
0.0
 10
270244.58
 20
345909.3300000001
 10
270245.31
 20
345909.99
 10
270261.81
 20
345919.19
 10
270270.69
 20
345924.0200000001
 10
270275.41
 20
345926.5900000001
 10
270283.43
 20
345931.02
  0
LWPOLYLINE
  5
358
330
6F
100
AcDbEntity
  8
02_-_GENERAL_FEATURE
100
AcDbPolyline
 90
        4
 70
     0
 43
0.0
 10
270170.56
 20
345946.7
 10
270167.79
 20
345955.0
 10
270167.19
 20
345963.4000000001
 10
270172.65
 20
345964.41
  0
LINE
  5
35E
330
6F
100
AcDbEntity
  8
02_-_GENERAL_FEATURE
100
AcDbLine
 10
270254.0900000001
 20
345981.2
 30
0.0
 11
270262.3900000001
 21
345959.6
 31
0.0
  0
LINE
  5
35F
330
6F
100
AcDbEntity
  8
01_-_GENERAL_SURFACE
100
AcDbLine
 10
270242.8
 20
345909.2
 30
0.0
 11
270243.66
 21
345908.34
 31
0.0
  0
LWPOLYLINE
  5
360
330
6F
100
AcDbEntity
  8
22_-_ROAD_OR_TRACK
100
AcDbPolyline
 90
        6
 70
     0
 43
0.0
 10
270200.78
 20
345915.31
 10
270200.78
 20
345914.61
 10
270200.54
 20
345912.39
 10
270199.51
 20
345908.5
 10
270198.95
 20
345905.72
 10
270198.31
 20
345902.39
  0
LWPOLYLINE
  5
368
330
6F
100
AcDbEntity
  8
22_-_ROAD_OR_TRACK
100
AcDbPolyline
 90
        5
 70
     0
 43
0.0
 10
270201.66
 20
345923.69
 10
270201.33
 20
345922.95
 10
270200.78
 20
345920.8
 10
270200.78
 20
345917.71
 10
270200.78
 20
345915.31
  0
LINE
  5
36F
330
6F
100
AcDbEntity
  8
25_-_BUILDING
100
AcDbLine
 10
270309.14
 20
345931.8000000001
 30
0.0
 11
270305.55
 21
345938.18
 31
0.0
  0
LINE
  5
370
330
6F
100
AcDbEntity
  8
25_-_BUILDING
100
AcDbLine
 10
270172.35
 20
345940.96
 30
0.0
 11
270170.56
 21
345946.7
 31
0.0
  0
LINE
  5
371
330
6F
100
AcDbEntity
  8
25_-_BUILDING
100
AcDbLine
 10
270317.0
 20
345944.5800000001
 30
0.0
 11
270314.23
 21
345943.01
 31
0.0
  0
LINE
  5
372
330
6F
100
AcDbEntity
  8
02_-_GENERAL_FEATURE
100
AcDbLine
 10
270182.09
 20
345935.1
 30
0.0
 11
270188.99
 21
345936.0
 31
0.0
  0
LINE
  5
373
330
6F
100
AcDbEntity
  8
11_-_NETWORK_OR_POLYGON_CLOSING
100
AcDbLine
 10
270199.27
 20
345934.0
 30
0.0
 11
270198.79
 21
345936.7
 31
0.0
  0
LWPOLYLINE
  5
374
330
6F
100
AcDbEntity
  8
02_-_GENERAL_FEATURE
100
AcDbPolyline
 90
        3
 70
     0
 43
0.0
 10
270315.29
 20
346011.8700000001
 10
270313.8900000001
 20
346010.67
 10
270315.29
 20
346008.87
  0
LINE
  5
379
330
6F
100
AcDbEntity
  8
02_-_GENERAL_FEATURE
100
AcDbLine
 10
270276.97
 20
346016.0
 30
0.0
 11
270277.1
 21
346015.82
 31
0.0
  0
LINE
  5
37A
330
6F
100
AcDbEntity
  8
11_-_NETWORK_OR_POLYGON_CLOSING
100
AcDbLine
 10
270235.91
 20
345910.0900000001
 30
0.0
 11
270240.81
 21
345906.99
 31
0.0
  0
LWPOLYLINE
  5
37B
330
6F
100
AcDbEntity
  8
25_-_BUILDING
100
AcDbPolyline
 90
        3
 70
     0
 43
0.0
 10
270215.7000000001
 20
345904.97
 10
270221.7
 20
345902.17
 10
270223.05
 20
345904.86
  0
LINE
  5
380
330
6F
100
AcDbEntity
  8
25_-_BUILDING
100
AcDbLine
 10
270217.0
 20
345907.77
 30
0.0
 11
270215.7000000001
 21
345904.97
 31
0.0
  0
LWPOLYLINE
  5
381
330
6F
100
AcDbEntity
  8
22_-_ROAD_OR_TRACK
100
AcDbPolyline
 90
        4
 70
     0
 43
0.0
 10
270187.17
 20
345895.44
 10
270188.1
 20
345894.68
 10
270191.5
 20
345892.0800000001
 10
270192.12
 20
345891.67
  0
LINE
  5
387
330
6F
100
AcDbEntity
  8
25_-_BUILDING
100
AcDbLine
 10
270219.2
 20
345874.97
 30
0.0
 11
270216.5
 21
345867.78
 31
0.0
  0
LINE
  5
388
330
6F
100
AcDbEntity
  8
25_-_BUILDING
100
AcDbLine
 10
270304.39
 20
345867.25
 30
0.0
 11
270297.89
 21
345872.85
 31
0.0
  0
LWPOLYLINE
  5
389
330
6F
100
AcDbEntity
  8
25_-_BUILDING
100
AcDbPolyline
 90
        3
 70
     0
 43
0.0
 10
270206.23
 20
345866.0
 10
270207.8
 20
345870.48
 10
270206.3900000001
 20
345870.9600000001
  0
LINE
  5
38E
330
6F
100
AcDbEntity
  8
25_-_BUILDING
100
AcDbLine
 10
270244.66
 20
345866.44
 30
0.0
 11
270244.24
 21
345866.0
 31
0.0
  0
LWPOLYLINE
  5
38F
330
6F
100
AcDbEntity
  8
14_-_POLITICAL_OR_ADMINISTRATIV
100
AcDbPolyline
 90
        7
 70
     0
 43
0.0
 10
270229.87
 20
345866.0
 10
270235.3
 20
345874.88
 10
270237.3
 20
345877.58
 10
270239.89
 20
345875.99
 10
270242.61
 20
345873.89
 10
270245.31
 20
345876.8900000001
 10
270247.51
 20
345879.49
  0
LWPOLYLINE
  5
398
330
6F
100
AcDbEntity
  8
22_-_ROAD_OR_TRACK
100
AcDbPolyline
 90
        3
 70
     0
 43
0.0
 10
270228.63
 20
345876.84
 10
270228.9
 20
345876.2800000001
 10
270229.12
 20
345875.39
  0
LWPOLYLINE
  5
39D
330
6F
100
AcDbEntity
  8
22_-_ROAD_OR_TRACK
100
AcDbPolyline
 90
        3
 70
     0
 43
0.0
 10
270317.0
 20
345875.86
 10
270315.79
 20
345874.39
 10
270311.43
 20
345869.3
  0
LWPOLYLINE
  5
3A2
330
6F
100
AcDbEntity
  8
22_-_ROAD_OR_TRACK
100
AcDbPolyline
 90
        3
 70
     0
 43
0.0
 10
270240.49
 20
345871.6
 10
270243.64
 20
345869.4900000001
 10
270247.85
 20
345866.0
  0
LINE
  5
3A7
330
6F
100
AcDbEntity
  8
25_-_BUILDING
100
AcDbLine
 10
270310.14
 20
345940.7000000001
 30
0.0
 11
270313.54
 21
345934.5000000001
 31
0.0
  0
LINE
  5
3A8
330
6F
100
AcDbEntity
  8
25_-_BUILDING
100
AcDbLine
 10
270226.5000000001
 20
345907.27
 30
0.0
 11
270228.8
 21
345906.17
 31
0.0
  0
LWPOLYLINE
  5
3A9
330
6F
100
AcDbEntity
  8
25_-_BUILDING
100
AcDbPolyline
 90
        4
 70
     0
 43
0.0
 10
270294.24
 20
345926.9000000001
 10
270290.14
 20
345924.6
 10
270295.6400000001
 20
345914.5
 10
270301.14
 20
345917.5
  0
LINE
  5
3AF
330
6F
100
AcDbEntity
  8
25_-_BUILDING
100
AcDbLine
 10
270225.39
 20
345904.98
 30
0.0
 11
270226.5000000001
 21
345907.27
 31
0.0
  0
LWPOLYLINE
  5
3B0
330
6F
100
AcDbEntity
  8
25_-_BUILDING
100
AcDbPolyline
 90
        5
 70
     0
 43
0.0
 10
270207.86
 20
345909.7800000001
 10
270211.2
 20
345910.47
 10
270213.0
 20
345909.87
 10
270214.4
 20
345912.97
 10
270216.5
 20
345911.97
  0
LINE
  5
3B7
330
6F
100
AcDbEntity
  8
02_-_GENERAL_FEATURE
100
AcDbLine
 10
270241.85
 20
345908.1500000001
 30
0.0
 11
270243.79
 21
345910.31
 31
0.0
  0
LWPOLYLINE
  5
3B8
330
6F
100
AcDbEntity
  8
02_-_GENERAL_FEATURE
100
AcDbPolyline
 90
        3
 70
     0
 43
0.0
 10
270167.0
 20
345935.19
 10
270167.69
 20
345933.1000000001
 10
270174.49
 20
345934.1
  0
LINE
  5
3BD
330
6F
100
AcDbEntity
  8
02_-_GENERAL_FEATURE
100
AcDbLine
 10
270195.49
 20
345936.9000000001
 30
0.0
 11
270195.1
 21
345938.01
 31
0.0
  0
LWPOLYLINE
  5
3BE
330
6F
100
AcDbEntity
  8
02_-_GENERAL_FEATURE
100
AcDbPolyline
 90
        5
 70
     0
 43
0.0
 10
270185.41
 20
345932.48
 10
270188.29
 20
345932.9
 10
270191.24
 20
345933.39
 10
270194.16
 20
345932.46
 10
270196.11
 20
345931.62
  0
LINE
  5
3C5
330
6F
100
AcDbEntity
  8
02_-_GENERAL_FEATURE
100
AcDbLine
 10
270314.24
 20
345920.02
 30
0.0
 11
270310.24
 21
345918.1
 31
0.0
  0
LINE
  5
3C6
330
6F
100
AcDbEntity
  8
02_-_GENERAL_FEATURE
100
AcDbLine
 10
270310.24
 20
345918.1
 30
0.0
 11
270305.0
 21
345916.5100000001
 31
0.0
  0
LINE
  5
3C7
330
6F
100
AcDbEntity
  8
02_-_GENERAL_FEATURE
100
AcDbLine
 10
270314.81
 20
345918.6900000001
 30
0.0
 11
270314.24
 21
345920.02
 31
0.0
  0
LINE
  5
3C8
330
6F
100
AcDbEntity
  8
01_-_GENERAL_SURFACE
100
AcDbLine
 10
270241.85
 20
345908.1500000001
 30
0.0
 11
270242.69
 21
345907.22
 31
0.0
  0
LINE
  5
3C9
330
6F
100
AcDbEntity
  8
11_-_NETWORK_OR_POLYGON_CLOSING
100
AcDbLine
 10
270226.99
 20
345936.28
 30
0.0
 11
270237.06
 21
345939.59
 31
0.0
  0
LWPOLYLINE
  5
3CA
330
6F
100
AcDbEntity
  8
11_-_NETWORK_OR_POLYGON_CLOSING
100
AcDbPolyline
 90
        3
 70
     0
 43
0.0
 10
270196.11
 20
345931.62
 10
270197.1500000001
 20
345932.3900000001
 10
270199.27
 20
345934.0
  0
LWPOLYLINE
  5
3CF
330
6F
100
AcDbEntity
  8
22_-_ROAD_OR_TRACK
100
AcDbPolyline
 90
        6
 70
     0
 43
0.0
 10
270193.36
 20
345915.32
 10
270193.24
 20
345916.5500000001
 10
270192.84
 20
345919.25
 10
270192.94
 20
345920.95
 10
270193.0300000001
 20
345923.1300000001
 10
270193.05
 20
345923.65
  0
LINE
  5
3D7
330
6F
100
AcDbEntity
  8
25_-_BUILDING
100
AcDbLine
 10
270184.4000000001
 20
345951.0700000001
 30
0.0
 11
270190.31
 21
345952.93
 31
0.0
  0
LINE
  5
3D8
330
6F
100
AcDbEntity
  8
02_-_GENERAL_FEATURE
100
AcDbLine
 10
270283.69
 20
345970.9
 30
0.0
 11
270279.12
 21
345967.95
 31
0.0
  0
LWPOLYLINE
  5
3D9
330
6F
100
AcDbEntity
  8
02_-_GENERAL_FEATURE
100
AcDbPolyline
 90
        3
 70
     0
 43
0.0
 10
270199.0900000001
 20
345950.6
 10
270199.29
 20
345950.7
 10
270208.79
 20
345956.9000000001
  0
LWPOLYLINE
  5
3DE
330
6F
100
AcDbEntity
  8
25_-_BUILDING
100
AcDbPolyline
 90
        4
 70
     0
 43
0.0
 10
270310.3400000001
 20
345929.6
 10
270313.44
 20
345931.4000000001
 10
270312.24
 20
345933.5
 10
270313.54
 20
345934.5000000001
  0
LINE
  5
3E4
330
6F
100
AcDbEntity
  8
02_-_GENERAL_FEATURE
100
AcDbLine
 10
270315.44
 20
345931.2000000001
 30
0.0
 11
270317.0
 21
345928.3900000001
 31
0.0
  0
LINE
  5
3E5
330
6F
100
AcDbEntity
  8
02_-_GENERAL_FEATURE
100
AcDbLine
 10
270310.39
 20
346005.07
 30
0.0
 11
270308.79
 21
346006.87
 31
0.0
  0
LINE
  5
3E6
330
6F
100
AcDbEntity
  8
02_-_GENERAL_FEATURE
100
AcDbLine
 10
270317.0
 20
345921.47
 30
0.0
 11
270315.44
 21
345920.6
 31
0.0
  0
LINE
  5
3E7
330
6F
100
AcDbEntity
  8
22_-_ROAD_OR_TRACK
100
AcDbLine
 10
270307.61
 20
345871.99
 30
0.0
 11
270308.61
 21
345871.49
 31
0.0
  0
LWPOLYLINE
  5
3E8
330
6F
100
AcDbEntity
  8
22_-_ROAD_OR_TRACK
100
AcDbPolyline
 90
        3
 70
     0
 43
0.0
 10
270311.43
 20
345869.3
 10
270309.19
 20
345866.69
 10
270308.73
 20
345866.0
  0
LINE
  5
3ED
330
6F
100
AcDbEntity
  8
25_-_BUILDING
100
AcDbLine
 10
270213.2000000001
 20
345899.47
 30
0.0
 11
270215.7000000001
 21
345904.97
 31
0.0
  0
LINE
  5
3EE
330
6F
100
AcDbEntity
  8
25_-_BUILDING
100
AcDbLine
 10
270314.23
 20
345943.01
 30
0.0
 11
270317.0
 21
345938.24
 31
0.0
  0
LWPOLYLINE
  5
3EF
330
6F
100
AcDbEntity
  8
25_-_BUILDING
100
AcDbPolyline
 90
        4
 70
     0
 43
0.0
 10
270212.8
 20
345945.54
 10
270220.0900000001
 20
345948.1
 10
270217.69
 20
345955.0
 10
270210.34
 20
345952.52
  0
LWPOLYLINE
  5
3F5
330
6F
100
AcDbEntity
  8
25_-_BUILDING
100
AcDbPolyline
 90
        8
 70
     0
 43
0.0
 10
270231.51
 20
345953.72
 10
270226.19
 20
345951.9
 10
270224.69
 20
345955.7
 10
270222.79
 20
345955.0
 10
270221.69
 20
345958.6
 10
270223.79
 20
345959.4000000001
 10
270224.1900000001
 20
345958.6
 10
270229.24
 20
345960.36
  0
LINE
  5
3FF
330
6F
100
AcDbEntity
  8
25_-_BUILDING
100
AcDbLine
 10
270309.14
 20
345931.8000000001
 30
0.0
 11
270310.3400000001
 21
345929.6
 31
0.0
  0
LINE
  5
400
330
6F
100
AcDbEntity
  8
25_-_BUILDING
100
AcDbLine
 10
270228.8
 20
345906.17
 30
0.0
 11
270227.82
 21
345904.01
 31
0.0
  0
LWPOLYLINE
  5
401
330
6F
100
AcDbEntity
  8
25_-_BUILDING
100
AcDbPolyline
 90
        4
 70
     0
 43
0.0
 10
270253.51
 20
345996.57
 10
270255.67
 20
345993.47
 10
270261.55
 20
345997.5700000001
 10
270259.39
 20
346000.67
  0
LWPOLYLINE
  5
407
330
6F
100
AcDbEntity
  8
02_-_GENERAL_FEATURE
100
AcDbPolyline
 90
        4
 70
     0
 43
0.0
 10
270218.29
 20
345963.1
 10
270217.09
 20
345966.6
 10
270225.99
 20
345969.8
 10
270226.69
 20
345967.8
  0
LWPOLYLINE
  5
40D
330
6F
100
AcDbEntity
  8
02_-_GENERAL_FEATURE
100
AcDbPolyline
 90
        3
 70
     0
 43
0.0
 10
270281.61
 20
345883.19
 10
270282.81
 20
345884.5900000001
 10
270286.11
 20
345881.69
  0
LINE
  5
412
330
6F
100
AcDbEntity
  8
02_-_GENERAL_FEATURE
100
AcDbLine
 10
270212.8
 20
345945.54
 30
0.0
 11
270214.0900000001
 21
345941.9
 31
0.0
  0
LWPOLYLINE
  5
413
330
6F
100
AcDbEntity
  8
02_-_GENERAL_FEATURE
100
AcDbPolyline
 90
        4
 70
     0
 43
0.0
 10
270317.0
 20
345894.5900000001
 10
270314.15
 20
345895.29
 10
270308.91
 20
345896.58
 10
270307.61
 20
345895.99
  0
LWPOLYLINE
  5
419
330
6F
100
AcDbEntity
  8
02_-_GENERAL_FEATURE
100
AcDbPolyline
 90
        3
 70
     0
 43
0.0
 10
270287.7
 20
345906.42
 10
270280.14
 20
345902.18
 10
270278.74
 20
345904.68
  0
LINE
  5
41E
330
6F
100
AcDbEntity
  8
11_-_NETWORK_OR_POLYGON_CLOSING
100
AcDbLine
 10
270226.2000000001
 20
345889.8700000001
 30
0.0
 11
270234.97
 21
345887.25
 31
0.0
  0
LINE
  5
41F
330
6F
100
AcDbEntity
  8
11_-_NETWORK_OR_POLYGON_CLOSING
100
AcDbLine
 10
270240.49
 20
345871.6
 30
0.0
 11
270245.0300000001
 21
345877.5900000001
 31
0.0
  0
LWPOLYLINE
  5
420
330
6F
100
AcDbEntity
  8
22_-_ROAD_OR_TRACK
100
AcDbPolyline
 90
        4
 70
     0
 43
0.0
 10
270226.2000000001
 20
345889.8700000001
 10
270227.7
 20
345890.37
 10
270229.48
 20
345891.56
 10
270229.5
 20
345891.57
  0
LINE
  5
426
330
6F
100
AcDbEntity
  8
25_-_BUILDING
100
AcDbLine
 10
270266.52
 20
345866.0
 30
0.0
 11
270270.8100000001
 21
345870.8900000001
 31
0.0
  0
LINE
  5
427
330
6F
100
AcDbEntity
  8
25_-_BUILDING
100
AcDbLine
 10
270259.85
 20
345869.24
 30
0.0
 11
270266.61
 21
345877.19
 31
0.0
  0
LINE
  5
428
330
6F
100
AcDbEntity
  8
25_-_BUILDING
100
AcDbLine
 10
270225.0
 20
345904.17
 30
0.0
 11
270221.2
 21
345895.67
 31
0.0
  0
LWPOLYLINE
  5
429
330
6F
100
AcDbEntity
  8
25_-_BUILDING
100
AcDbPolyline
 90
        3
 70
     0
 43
0.0
 10
270275.61
 20
345872.29
 10
270272.91
 20
345869.19
 10
270270.8100000001
 20
345870.8900000001
  0
LINE
  5
42E
330
6F
100
AcDbEntity
  8
25_-_BUILDING
100
AcDbLine
 10
270292.49
 20
345874.85
 30
0.0
 11
270290.69
 21
345872.85
 31
0.0
  0
LINE
  5
42F
330
6F
100
AcDbEntity
  8
25_-_BUILDING
100
AcDbLine
 10
270300.81
 20
345877.69
 30
0.0
 11
270307.61
 21
345871.99
 31
0.0
  0
LINE
  5
430
330
6F
100
AcDbEntity
  8
25_-_BUILDING
100
AcDbLine
 10
270298.01
 20
345884.19
 30
0.0
 11
270305.71
 21
345892.79
 31
0.0
  0
LINE
  5
431
330
6F
100
AcDbEntity
  8
25_-_BUILDING
100
AcDbLine
 10
270259.85
 20
345869.24
 30
0.0
 11
270263.74
 21
345866.0
 31
0.0
  0
LINE
  5
432
330
6F
100
AcDbEntity
  8
25_-_BUILDING
100
AcDbLine
 10
270254.13
 20
345874.01
 30
0.0
 11
270259.85
 21
345869.24
 31
0.0
  0
LINE
  5
433
330
6F
100
AcDbEntity
  8
25_-_BUILDING
100
AcDbLine
 10
270311.79
 20
345866.0
 30
0.0
 11
270314.85
 21
345869.92
 31
0.0
  0
LWPOLYLINE
  5
434
330
6F
100
AcDbEntity
  8
25_-_BUILDING
100
AcDbPolyline
 90
        5
 70
     0
 43
0.0
 10
270213.2000000001
 20
345899.47
 10
270207.1
 20
345902.37
 10
270205.9
 20
345905.37
 10
270207.8
 20
345909.77
 10
270207.86
 20
345909.7800000001
  0
LINE
  5
43B
330
6F
100
AcDbEntity
  8
25_-_BUILDING
100
AcDbLine
 10
270215.82
 20
345866.0
 30
0.0
 11
270216.5
 21
345867.78
 31
0.0
  0
LINE
  5
43C
330
6F
100
AcDbEntity
  8
25_-_BUILDING
100
AcDbLine
 10
270209.2
 20
345878.5800000001
 30
0.0
 11
270219.2
 21
345874.97
 31
0.0
  0
LINE
  5
43D
330
6F
100
AcDbEntity
  8
25_-_BUILDING
100
AcDbLine
 10
270207.62
 20
345879.13
 30
0.0
 11
270209.2
 21
345878.5800000001
 31
0.0
  0
LWPOLYLINE
  5
43E
330
6F
100
AcDbEntity
  8
25_-_BUILDING
100
AcDbPolyline
 90
        4
 70
     0
 43
0.0
 10
270225.0
 20
345872.68
 10
270227.1
 20
345871.78
 10
270227.4
 20
345869.58
 10
270225.86
 20
345866.0
  0
LINE
  5
444
330
6F
100
AcDbEntity
  8
25_-_BUILDING
100
AcDbLine
 10
270283.43
 20
345931.02
 30
0.0
 11
270285.68
 21
345932.2500000001
 31
0.0
  0
LINE
  5
445
330
6F
100
AcDbEntity
  8
02_-_GENERAL_FEATURE
100
AcDbLine
 10
270208.79
 20
345956.9000000001
 30
0.0
 11
270218.29
 21
345963.1
 31
0.0
  0
LINE
  5
446
330
6F
100
AcDbEntity
  8
02_-_GENERAL_FEATURE
100
AcDbLine
 10
270280.59
 20
345866.0
 30
0.0
 11
270281.42
 21
345867.0
 31
0.0
  0
LWPOLYLINE
  5
447
330
6F
100
AcDbEntity
  8
02_-_GENERAL_FEATURE
100
AcDbPolyline
 90
        3
 70
     0
 43
0.0
 10
270301.14
 20
345917.5
 10
270302.3400000001
 20
345915.4
 10
270303.64
 20
345916.1
  0
LWPOLYLINE
  5
44C
330
6F
100
AcDbEntity
  8
02_-_GENERAL_FEATURE
100
AcDbPolyline
 90
        3
 70
     0
 43
0.0
 10
270305.33
 20
345926.91
 10
270310.0
 20
345918.5300000001
 10
270310.24
 20
345918.1
  0
LINE
  5
451
330
6F
100
AcDbEntity
  8
11_-_NETWORK_OR_POLYGON_CLOSING
100
AcDbLine
 10
270182.8
 20
345875.58
 30
0.0
 11
270178.11
 21
345877.6
 31
0.0
  0
LINE
  5
452
330
6F
100
AcDbEntity
  8
25_-_BUILDING
100
AcDbLine
 10
270312.91
 20
345878.29
 30
0.0
 11
270306.21
 21
345884.0900000001
 31
0.0
  0
LWPOLYLINE
  5
453
330
6F
100
AcDbEntity
  8
25_-_BUILDING
100
AcDbPolyline
 90
        4
 70
     0
 43
0.0
 10
270266.46
 20
346006.64
 10
270267.63
 20
346007.5800000001
 10
270269.52
 20
346005.22
 10
270268.3400000001
 20
346004.3000000001
  0
LWPOLYLINE
  5
459
330
6F
100
AcDbEntity
  8
25_-_BUILDING
100
AcDbPolyline
 90
        3
 70
     0
 43
0.0
 10
270220.8300000001
 20
345866.0
 10
270219.53
 20
345866.4500000001
 10
270219.35
 20
345866.0
  0
LINE
  5
45E
330
6F
100
AcDbEntity
  8
25_-_BUILDING
100
AcDbLine
 10
270279.61
 20
345868.49
 30
0.0
 11
270281.42
 21
345867.0
 31
0.0
  0
LWPOLYLINE
  5
45F
330
6F
100
AcDbEntity
  8
25_-_BUILDING
100
AcDbPolyline
 90
        5
 70
     0
 43
0.0
 10
270297.89
 20
345872.85
 10
270295.99
 20
345870.65
 10
270293.39
 20
345873.05
 10
270293.89
 20
345873.65
 10
270292.49
 20
345874.85
  0
LINE
  5
466
330
6F
100
AcDbEntity
  8
25_-_BUILDING
100
AcDbLine
 10
270301.9600000001
 20
345879.05
 30
0.0
 11
270300.81
 21
345877.69
 31
0.0
  0
LINE
  5
467
330
6F
100
AcDbEntity
  8
25_-_BUILDING
100
AcDbLine
 10
270280.74
 20
346003.86
 30
0.0
 11
270276.86
 21
346001.03
 31
0.0
  0
LWPOLYLINE
  5
468
330
6F
100
AcDbEntity
  8
25_-_BUILDING
100
AcDbPolyline
 90
        5
 70
     0
 43
0.0
 10
270260.01
 20
345887.39
 10
270254.51
 20
345880.8900000001
 10
270252.7100000001
 20
345882.0900000001
 10
270247.81
 20
345879.2900000001
 10
270254.13
 20
345874.01
  0
LINE
  5
46F
330
6F
100
AcDbEntity
  8
25_-_BUILDING
100
AcDbLine
 10
270305.55
 20
345938.18
 30
0.0
 11
270300.57
 21
345935.44
 31
0.0
  0
LINE
  5
470
330
6F
100
AcDbEntity
  8
25_-_BUILDING
100
AcDbLine
 10
270216.5
 20
345911.97
 30
0.0
 11
270215.44
 21
345909.85
 31
0.0
  0
LWPOLYLINE
  5
471
330
6F
100
AcDbEntity
  8
25_-_BUILDING
100
AcDbPolyline
 90
        4
 70
     0
 43
0.0
 10
270203.1
 20
345872.08
 10
270202.2
 20
345872.38
 10
270200.2
 20
345867.18
 10
270197.5
 20
345868.0800000001
  0
LINE
  5
477
330
6F
100
AcDbEntity
  8
25_-_BUILDING
100
AcDbLine
 10
270187.1
 20
345886.2800000001
 30
0.0
 11
270202.2100000001
 21
345881.01
 31
0.0
  0
LWPOLYLINE
  5
478
330
6F
100
AcDbEntity
  8
25_-_BUILDING
100
AcDbPolyline
 90
        3
 70
     0
 43
0.0
 10
270245.21
 20
345866.0
 10
270244.7
 20
345866.48
 10
270244.66
 20
345866.44
  0
LWPOLYLINE
  5
47D
330
6F
100
AcDbEntity
  8
25_-_BUILDING
100
AcDbPolyline
 90
        4
 70
     0
 43
0.0
 10
270277.1
 20
346015.82
 10
270275.82
 20
346014.8200000001
 10
270278.12
 20
346011.92
 10
270275.98
 20
346010.23
  0
LINE
  5
483
330
6F
100
AcDbEntity
  8
25_-_BUILDING
100
AcDbLine
 10
270283.62
 20
346015.92
 30
0.0
 11
270283.56
 21
346016.0
 31
0.0
  0
LWPOLYLINE
  5
484
330
6F
100
AcDbEntity
  8
25_-_BUILDING
100
AcDbPolyline
 90
        3
 70
     0
 43
0.0
 10
270227.66
 20
345892.89
 10
270227.6
 20
345892.87
 10
270221.2
 20
345895.67
  0
LINE
  5
489
330
6F
100
AcDbEntity
  8
25_-_BUILDING
100
AcDbLine
 10
270259.39
 20
346000.67
 30
0.0
 11
270253.51
 21
345996.57
 31
0.0
  0
LWPOLYLINE
  5
48A
330
6F
100
AcDbEntity
  8
02_-_GENERAL_FEATURE
100
AcDbPolyline
 90
        4
 70
     0
 43
0.0
 10
270257.08
 20
345982.88
 10
270261.38
 20
345985.3000000001
 10
270269.5
 20
345989.87
 10
270269.8
 20
345990.37
  0
LINE
  5
490
330
6F
100
AcDbEntity
  8
02_-_GENERAL_FEATURE
100
AcDbLine
 10
270167.0
 20
345929.79
 30
0.0
 11
270175.39
 21
345931.0
 31
0.0
  0
LINE
  5
491
330
6F
100
AcDbEntity
  8
02_-_GENERAL_FEATURE
100
AcDbLine
 10
270213.85
 20
345866.0
 30
0.0
 11
270214.6900000001
 21
345868.44
 31
0.0
  0
LWPOLYLINE
  5
492
330
6F
100
AcDbEntity
  8
02_-_GENERAL_FEATURE
100
AcDbPolyline
 90
        3
 70
     0
 43
0.0
 10
270288.24
 20
346009.8400000001
 10
270296.17
 20
346000.0
 10
270299.26
 20
345995.62
  0
LWPOLYLINE
  5
497
330
6F
100
AcDbEntity
  8
02_-_GENERAL_FEATURE
100
AcDbPolyline
 90
        3
 70
     0
 43
0.0
 10
270284.0200000001
 20
346006.47
 10
270289.08
 20
346000.0
 10
270294.86
 20
345992.42
  0
LWPOLYLINE
  5
49C
330
6F
100
AcDbEntity
  8
02_-_GENERAL_FEATURE
100
AcDbPolyline
 90
        3
 70
     0
 43
0.0
 10
270292.49
 20
345874.85
 10
270293.69
 20
345876.2500000001
 10
270297.89
 20
345872.85
  0
LWPOLYLINE
  5
4A1
330
6F
100
AcDbEntity
  8
02_-_GENERAL_FEATURE
100
AcDbPolyline
 90
        3
 70
     0
 43
0.0
 10
270262.3900000001
 20
345959.6
 10
270259.19
 20
345958.7000000001
 10
270251.79
 20
345956.2
  0
LWPOLYLINE
  5
4A6
330
6F
100
AcDbEntity
  8
02_-_GENERAL_FEATURE
100
AcDbPolyline
 90
        5
 70
     0
 43
0.0
 10
270301.9600000001
 20
345879.05
 10
270300.7100000001
 20
345880.29
 10
270299.91
 20
345880.39
 10
270299.21
 20
345878.39
 10
270300.81
 20
345877.69
  0
LINE
  5
4AD
330
6F
100
AcDbEntity
  8
02_-_GENERAL_FEATURE
100
AcDbLine
 10
270175.39
 20
345931.0
 30
0.0
 11
270174.49
 21
345934.1
 31
0.0
  0
LINE
  5
4AE
330
6F
100
AcDbEntity
  8
02_-_GENERAL_FEATURE
100
AcDbLine
 10
270174.49
 20
345934.1
 30
0.0
 11
270182.09
 21
345935.1
 31
0.0
  0
LINE
  5
4AF
330
6F
100
AcDbEntity
  8
02_-_GENERAL_FEATURE
100
AcDbLine
 10
270184.5
 20
345887.5800000001
 30
0.0
 11
270187.1
 21
345886.2800000001
 31
0.0
  0
LINE
  5
4B0
330
6F
100
AcDbEntity
  8
02_-_GENERAL_FEATURE
100
AcDbLine
 10
270179.47
 20
345943.24
 30
0.0
 11
270182.09
 21
345935.1
 31
0.0
  0
LINE
  5
4B1
330
6F
100
AcDbEntity
  8
02_-_GENERAL_FEATURE
100
AcDbLine
 10
270186.13
 20
345945.37
 30
0.0
 11
270188.99
 21
345936.0
 31
0.0
  0
LINE
  5
4B2
330
6F
100
AcDbEntity
  8
02_-_GENERAL_FEATURE
100
AcDbLine
 10
270231.51
 20
345953.72
 30
0.0
 11
270232.89
 21
345949.7000000001
 31
0.0
  0
LINE
  5
4B3
330
6F
100
AcDbEntity
  8
02_-_GENERAL_FEATURE
100
AcDbLine
 10
270208.79
 20
345956.9000000001
 30
0.0
 11
270210.34
 21
345952.52
 31
0.0
  0
LWPOLYLINE
  5
4B4
330
6F
100
AcDbEntity
  8
02_-_GENERAL_FEATURE
100
AcDbPolyline
 90
        3
 70
     0
 43
0.0
 10
270198.79
 20
345936.7
 10
270198.23
 20
345938.61
 10
270195.1
 20
345938.01
  0
LINE
  5
4B9
330
6F
100
AcDbEntity
  8
02_-_GENERAL_FEATURE
100
AcDbLine
 10
270188.99
 20
345936.0
 30
0.0
 11
270195.49
 21
345936.9000000001
 31
0.0
  0
LWPOLYLINE
  5
4BA
330
6F
100
AcDbEntity
  8
02_-_GENERAL_FEATURE
100
AcDbPolyline
 90
        3
 70
     0
 43
0.0
 10
270305.29
 20
346004.2700000001
 10
270307.3900000001
 20
346005.77
 10
270308.89
 20
346003.97
  0
LINE
  5
4BF
330
6F
100
AcDbEntity
  8
02_-_GENERAL_FEATURE
100
AcDbLine
 10
270288.1
 20
345974.3200000001
 30
0.0
 11
270283.69
 21
345970.9
 31
0.0
  0
LINE
  5
4C0
330
6F
100
AcDbEntity
  8
11_-_NETWORK_OR_POLYGON_CLOSING
100
AcDbLine
 10
270212.57
 20
345915.6
 30
0.0
 11
270207.86
 21
345909.7800000001
 31
0.0
  0
LWPOLYLINE
  5
4C1
330
6F
100
AcDbEntity
  8
11_-_NETWORK_OR_POLYGON_CLOSING
100
AcDbPolyline
 90
        3
 70
     0
 43
0.0
 10
270240.91
 20
345896.89
 10
270242.2100000001
 20
345898.49
 10
270246.01
 20
345902.59
  0
LWPOLYLINE
  5
4C6
330
6F
100
AcDbEntity
  8
22_-_ROAD_OR_TRACK
100
AcDbPolyline
 90
        5
 70
     0
 43
0.0
 10
270223.0
 20
345881.28
 10
270225.0
 20
345880.68
 10
270226.6
 20
345879.68
 10
270228.0
 20
345878.18
 10
270228.63
 20
345876.84
  0
LWPOLYLINE
  5
4CD
330
6F
100
AcDbEntity
  8
22_-_ROAD_OR_TRACK
100
AcDbPolyline
 90
        9
 70
     0
 43
0.0
 10
270187.21
 20
345906.5800000001
 10
270188.24
 20
345906.85
 10
270189.79
 20
345907.33
 10
270190.98
 20
345908.3800000001
 10
270192.1
 20
345909.24
 10
270193.0300000001
 20
345911.0300000001
 10
270193.49
 20
345912.68
 10
270193.44
 20
345914.45
 10
270193.36
 20
345915.32
  0
LINE
  5
4D8
330
6F
100
AcDbEntity
  8
25_-_BUILDING
100
AcDbLine
 10
270170.56
 20
345946.7
 30
0.0
 11
270177.64
 21
345948.9400000001
 31
0.0
  0
LWPOLYLINE
  5
4D9
330
6F
100
AcDbEntity
  8
25_-_BUILDING
100
AcDbPolyline
 90
        3
 70
     0
 43
0.0
 10
270194.91
 20
345950.41
 10
270195.5900000001
 20
345948.4000000001
 10
270191.9500000001
 20
345947.23
  0
LINE
  5
4DE
330
6F
100
AcDbEntity
  8
25_-_BUILDING
100
AcDbLine
 10
270210.34
 20
345952.52
 30
0.0
 11
270212.8
 21
345945.54
 31
0.0
  0
LWPOLYLINE
  5
4DF
330
6F
100
AcDbEntity
  8
25_-_BUILDING
100
AcDbPolyline
 90
        4
 70
     0
 43
0.0
 10
270298.24
 20
345922.9
 10
270299.64
 20
345923.8
 10
270298.64
 20
345925.9
 10
270299.54
 20
345926.5
  0
LINE
  5
4E5
330
6F
100
AcDbEntity
  8
25_-_BUILDING
100
AcDbLine
 10
270284.0200000001
 20
346006.47
 30
0.0
 11
270280.74
 21
346003.86
 31
0.0
  0
LINE
  5
4E6
330
6F
100
AcDbEntity
  8
02_-_GENERAL_FEATURE
100
AcDbLine
 10
270175.49
 20
345955.6
 30
0.0
 11
270177.64
 21
345948.9400000001
 31
0.0
  0
LWPOLYLINE
  5
4E7
330
6F
100
AcDbEntity
  8
22_-_ROAD_OR_TRACK
100
AcDbPolyline
 90
        7
 70
     0
 43
0.0
 10
270193.05
 20
345923.65
 10
270193.1
 20
345925.0300000001
 10
270193.3
 20
345926.8400000001
 10
270193.76
 20
345928.2
 10
270194.47
 20
345929.56
 10
270195.62
 20
345931.25
 10
270196.11
 20
345931.62
  0
LINE
  5
4F0
330
6F
100
AcDbEntity
  8
02_-_GENERAL_FEATURE
100
AcDbLine
 10
270241.27
 20
345952.58
 30
0.0
 11
270232.89
 21
345949.7000000001
 31
0.0
  0
LINE
  5
4F1
330
6F
100
AcDbEntity
  8
02_-_GENERAL_FEATURE
100
AcDbLine
 10
270251.79
 20
345956.2
 30
0.0
 11
270241.27
 21
345952.58
 31
0.0
  0
LWPOLYLINE
  5
4F2
330
6F
100
AcDbEntity
  8
02_-_GENERAL_FEATURE
100
AcDbPolyline
 90
        3
 70
     0
 43
0.0
 10
270266.76
 20
345949.18
 10
270266.37
 20
345949.04
 10
270237.4000000001
 20
345938.7100000001
  0
LINE
  5
4F7
330
6F
100
AcDbEntity
  8
02_-_GENERAL_FEATURE
100
AcDbLine
 10
270282.9600000001
 20
345983.62
 30
0.0
 11
270287.46
 21
345986.92
 31
0.0
  0
LINE
  5
4F8
330
6F
100
AcDbEntity
  8
25_-_BUILDING
100
AcDbLine
 10
270275.98
 20
346010.23
 30
0.0
 11
270272.02
 21
346007.12
 31
0.0
  0
LINE
  5
4F9
330
6F
100
AcDbEntity
  8
25_-_BUILDING
100
AcDbLine
 10
270288.24
 20
346009.8400000001
 30
0.0
 11
270284.0200000001
 21
346006.47
 31
0.0
  0
LWPOLYLINE
  5
4FA
330
6F
100
AcDbEntity
  8
02_-_GENERAL_FEATURE
100
AcDbPolyline
 90
        7
 70
     0
 43
0.0
 10
270310.0
 20
345984.8400000001
 10
270303.0200000001
 20
345977.67
 10
270294.62
 20
345970.0700000001
 10
270290.1
 20
345966.89
 10
270285.02
 20
345963.27
 10
270280.32
 20
345960.2700000001
 10
270279.35
 20
345959.5700000001
  0
LINE
  5
503
330
6F
100
AcDbEntity
  8
25_-_BUILDING
100
AcDbLine
 10
270204.7800000001
 20
345871.5
 30
0.0
 11
270207.62
 21
345879.13
 31
0.0
  0
LWPOLYLINE
  5
504
330
6F
100
AcDbEntity
  8
25_-_BUILDING
100
AcDbPolyline
 90
        3
 70
     0
 43
0.0
 10
270254.13
 20
345874.01
 10
270258.11
 20
345878.19
 10
270267.06
 20
345881.4500000001
  0
LWPOLYLINE
  5
509
330
6F
100
AcDbEntity
  8
25_-_BUILDING
100
AcDbPolyline
 90
        5
 70
     0
 43
0.0
 10
270293.0900000001
 20
345895.17
 10
270290.5
 20
345897.74
 10
270283.07
 20
345890.25
 10
270285.67
 20
345887.68
 10
270293.0900000001
 20
345895.17
  0
LINE
  5
510
330
6F
100
AcDbEntity
  8
25_-_BUILDING
100
AcDbLine
 10
270287.19
 20
345868.6500000001
 30
0.0
 11
270290.08
 21
345866.14
 31
0.0
  0
LINE
  5
511
330
6F
100
AcDbEntity
  8
25_-_BUILDING
100
AcDbLine
 10
270306.21
 20
345884.0900000001
 30
0.0
 11
270302.69
 21
345879.92
 31
0.0
  0
LINE
  5
512
330
6F
100
AcDbEntity
  8
25_-_BUILDING
100
AcDbLine
 10
270307.61
 20
345871.99
 30
0.0
 11
270312.91
 21
345878.29
 31
0.0
  0
LWPOLYLINE
  5
513
330
6F
100
AcDbEntity
  8
25_-_BUILDING
100
AcDbPolyline
 90
        5
 70
     0
 43
0.0
 10
270314.85
 20
345869.92
 10
270316.39
 20
345871.89
 10
270316.19
 20
345873.39
 10
270316.79
 20
345873.99
 10
270317.0
 20
345873.9400000001
  0
LWPOLYLINE
  5
51A
330
6F
100
AcDbEntity
  8
25_-_BUILDING
100
AcDbPolyline
 90
        3
 70
     0
 43
0.0
 10
270305.71
 20
345892.79
 10
270309.0100000001
 20
345889.69
 10
270304.8900000001
 20
345885.2
  0
LWPOLYLINE
  5
51F
330
6F
100
AcDbEntity
  8
25_-_BUILDING
100
AcDbPolyline
 90
        5
 70
     0
 43
0.0
 10
270227.82
 20
345904.01
 10
270227.4
 20
345903.07
 10
270233.5
 20
345899.97
 10
270231.0
 20
345894.3700000001
 10
270227.66
 20
345892.89
  0
LWPOLYLINE
  5
526
330
6F
100
AcDbEntity
  8
25_-_BUILDING
100
AcDbPolyline
 90
        4
 70
     0
 43
0.0
 10
270278.74
 20
345904.68
 10
270286.34
 20
345908.85
 10
270287.66
 20
345906.49
 10
270287.7
 20
345906.42
  0
LINE
  5
52C
330
6F
100
AcDbEntity
  8
25_-_BUILDING
100
AcDbLine
 10
270217.0
 20
345907.77
 30
0.0
 11
270223.05
 21
345904.86
 31
0.0
  0
LINE
  5
52D
330
6F
100
AcDbEntity
  8
02_-_GENERAL_FEATURE
100
AcDbLine
 10
270195.35
 20
345868.7600000001
 30
0.0
 11
270197.5
 21
345868.0800000001
 31
0.0
  0
LWPOLYLINE
  5
52E
330
6F
100
AcDbEntity
  8
02_-_GENERAL_FEATURE
100
AcDbPolyline
 90
        3
 70
     0
 43
0.0
 10
270175.85
 20
345874.06
 10
270186.61
 20
345868.61
 10
270185.29
 20
345866.0
  0
LINE
  5
533
330
6F
100
AcDbEntity
  8
02_-_GENERAL_FEATURE
100
AcDbLine
 10
270274.31
 20
345874.8900000001
 30
0.0
 11
270281.61
 21
345883.19
 31
0.0
  0
LINE
  5
534
330
6F
100
AcDbEntity
  8
02_-_GENERAL_FEATURE
100
AcDbLine
 10
270175.39
 20
345931.0
 30
0.0
 11
270185.41
 21
345932.48
 31
0.0
  0
LWPOLYLINE
  5
535
330
6F
100
AcDbEntity
  8
02_-_GENERAL_FEATURE
100
AcDbPolyline
 90
        8
 70
     0
 43
0.0
 10
270236.31
 20
345890.89
 10
270236.31
 20
345890.49
 10
270236.72
 20
345889.2
 10
270241.94
 20
345884.6500000001
 10
270247.21
 20
345880.58
 10
270255.2000000001
 20
345885.38
 10
270258.91
 20
345888.31
 10
270260.01
 20
345887.39
  0
LWPOLYLINE
  5
53F
330
6F
100
AcDbEntity
  8
02_-_GENERAL_FEATURE
100
AcDbPolyline
 90
        3
 70
     0
 43
0.0
 10
270270.5100000001
 20
345892.2900000001
 10
270276.03
 20
345896.42
 10
270281.21
 20
345899.19
  0
LWPOLYLINE
  5
544
330
6F
100
AcDbEntity
  8
02_-_GENERAL_FEATURE
100
AcDbPolyline
 90
        4
 70
     0
 43
0.0
 10
270209.2
 20
345878.5800000001
 10
270209.9
 20
345880.18
 10
270219.8
 20
345876.5800000001
 10
270219.2
 20
345874.97
  0
LINE
  5
54A
330
6F
100
AcDbEntity
  8
02_-_GENERAL_FEATURE
100
AcDbLine
 10
270200.78
 20
345915.31
 30
0.0
 11
270193.36
 21
345915.32
 31
0.0
  0
LINE
  5
54B
330
6F
100
AcDbEntity
  8
02_-_GENERAL_FEATURE
100
AcDbLine
 10
270174.49
 20
345934.1
 30
0.0
 11
270172.35
 21
345940.96
 31
0.0
  0
LWPOLYLINE
  5
54C
330
6F
100
AcDbEntity
  8
02_-_GENERAL_FEATURE
100
AcDbPolyline
 90
        8
 70
     0
 43
0.0
 10
270167.0
 20
345925.4000000001
 10
270170.1400000001
 20
345926.44
 10
270170.74
 20
345923.73
 10
270180.59
 20
345927.1
 10
270181.46
 20
345924.85
 10
270188.6
 20
345927.23
 10
270187.87
 20
345930.01
 10
270185.41
 20
345932.48
  0
LWPOLYLINE
  5
556
330
6F
100
AcDbEntity
  8
02_-_GENERAL_FEATURE
100
AcDbPolyline
 90
        9
 70
     0
 43
0.0
 10
270226.01
 20
345934.72
 10
270227.67
 20
345930.18
 10
270229.84
 20
345930.97
 10
270228.91
 20
345933.79
 10
270228.3
 20
345935.12
 10
270227.32
 20
345936.1
 10
270227.0
 20
345936.28
 10
270226.99
 20
345936.28
 10
270226.99
 20
345936.28
  0
LINE
  5
561
330
6F
100
AcDbEntity
  8
02_-_GENERAL_FEATURE
100
AcDbLine
 10
270293.0900000001
 20
345895.17
 30
0.0
 11
270299.38
 21
345901.1
 31
0.0
  0
LINE
  5
562
330
6F
100
AcDbEntity
  8
01_-_GENERAL_SURFACE
100
AcDbLine
 10
270243.79
 20
345910.31
 30
0.0
 11
270244.58
 21
345909.3300000001
 31
0.0
  0
LWPOLYLINE
  5
563
330
6F
100
AcDbEntity
  8
11_-_NETWORK_OR_POLYGON_CLOSING
100
AcDbPolyline
 90
        3
 70
     0
 43
0.0
 10
270219.13
 20
345917.64
 10
270218.68
 20
345917.8400000001
 10
270212.57
 20
345915.6
  0
LINE
  5
568
330
6F
100
AcDbEntity
  8
11_-_NETWORK_OR_POLYGON_CLOSING
100
AcDbLine
 10
270229.5
 20
345891.57
 30
0.0
 11
270227.66
 21
345892.89
 31
0.0
  0
LINE
  5
569
330
6F
100
AcDbEntity
  8
11_-_NETWORK_OR_POLYGON_CLOSING
100
AcDbLine
 10
270187.21
 20
345906.5800000001
 30
0.0
 11
270198.31
 21
345902.39
 31
0.0
  0
LINE
  5
56A
330
6F
100
AcDbEntity
  8
11_-_NETWORK_OR_POLYGON_CLOSING
100
AcDbLine
 10
270236.7000000001
 20
345869.88
 30
0.0
 11
270229.12
 21
345875.39
 31
0.0
  0
LWPOLYLINE
  5
56B
330
6F
100
AcDbEntity
  8
22_-_ROAD_OR_TRACK
100
AcDbPolyline
 90
        4
 70
     0
 43
0.0
 10
270245.0300000001
 20
345877.5900000001
 10
270249.71
 20
345873.99
 10
270254.21
 20
345870.09
 10
270259.12
 20
345866.0
  0
LINE
  5
571
330
6F
100
AcDbEntity
  8
25_-_BUILDING
100
AcDbLine
 10
270300.57
 20
345935.44
 30
0.0
 11
270305.33
 21
345926.91
 31
0.0
  0
LINE
  5
572
330
6F
100
AcDbEntity
  8
25_-_BUILDING
100
AcDbLine
 10
270275.98
 20
346010.23
 30
0.0
 11
270280.74
 21
346003.86
 31
0.0
  0
LINE
  5
573
330
6F
100
AcDbEntity
  8
25_-_BUILDING
100
AcDbLine
 10
270295.9400000001
 20
345932.8900000001
 30
0.0
 11
270299.54
 21
345926.5
 31
0.0
  0
LWPOLYLINE
  5
574
330
6F
100
AcDbEntity
  8
25_-_BUILDING
100
AcDbPolyline
 90
        4
 70
     0
 43
0.0
 10
270247.88
 20
345967.66
 10
270254.19
 20
345969.8
 10
270256.5900000001
 20
345963.0
 10
270250.2
 20
345960.85
  0
LINE
  5
57A
330
6F
100
AcDbEntity
  8
25_-_BUILDING
100
AcDbLine
 10
270255.33
 20
345909.7600000001
 30
0.0
 11
270281.73
 21
345924.36
 31
0.0
  0
LINE
  5
57B
330
6F
100
AcDbEntity
  8
25_-_BUILDING
100
AcDbLine
 10
270292.1400000001
 20
345930.8
 30
0.0
 11
270294.24
 21
345926.9000000001
 31
0.0
  0
LWPOLYLINE
  5
57C
330
6F
100
AcDbEntity
  8
25_-_BUILDING
100
AcDbPolyline
 90
        7
 70
     0
 43
0.0
 10
270265.3300000001
 20
345965.5
 10
270259.43
 20
345973.2000000001
 10
270272.3300000001
 20
345983.0
 10
270276.73
 20
345977.2
 10
270268.13
 20
345970.6
 10
270269.53
 20
345968.7000000001
 10
270265.3300000001
 20
345965.5
  0
LINE
  5
585
330
6F
100
AcDbEntity
  8
25_-_BUILDING
100
AcDbLine
 10
270314.81
 20
345918.6900000001
 30
0.0
 11
270317.0
 21
345914.67
 31
0.0
  0
LINE
  5
586
330
6F
100
AcDbEntity
  8
25_-_BUILDING
100
AcDbLine
 10
270219.13
 20
345917.64
 30
0.0
 11
270235.91
 21
345910.0900000001
 31
0.0
  0
LWPOLYLINE
  5
587
330
6F
100
AcDbEntity
  8
25_-_BUILDING
100
AcDbPolyline
 90
        4
 70
     0
 43
0.0
 10
270285.68
 20
345932.2500000001
 10
270283.83
 20
345935.6
 10
270281.59
 20
345934.37
 10
270283.43
 20
345931.02
  0
LINE
  5
58D
330
6F
100
AcDbEntity
  8
02_-_GENERAL_FEATURE
100
AcDbLine
 10
270226.69
 20
345967.8
 30
0.0
 11
270229.24
 21
345960.36
 31
0.0
  0
LINE
  5
58E
330
6F
100
AcDbEntity
  8
02_-_GENERAL_FEATURE
100
AcDbLine
 10
270310.0
 20
345984.8400000001
 30
0.0
 11
270317.0
 21
345977.4
 31
0.0
  0
LWPOLYLINE
  5
58F
330
6F
100
AcDbEntity
  8
02_-_GENERAL_FEATURE
100
AcDbPolyline
 90
        5
 70
     0
 43
0.0
 10
270279.12
 20
345967.95
 10
270272.19
 20
345964.1
 10
270267.0900000001
 20
345961.6
 10
270262.89
 20
345959.9
 10
270262.3900000001
 20
345959.6
  0
LINE
  5
596
330
6F
100
AcDbEntity
  8
02_-_GENERAL_FEATURE
100
AcDbLine
 10
270244.69
 20
345977.0
 30
0.0
 11
270247.88
 21
345967.66
 31
0.0
  0
LWPOLYLINE
  5
597
330
6F
100
AcDbEntity
  8
02_-_GENERAL_FEATURE
100
AcDbPolyline
 90
       20
 70
     0
 43
0.0
 10
270279.35
 20
345959.5700000001
 10
270278.88
 20
345958.35
 10
270278.8
 20
345957.23
 10
270278.82
 20
345956.3
 10
270279.01
 20
345955.58
 10
270279.48
 20
345954.67
 10
270280.0900000001
 20
345954.03
 10
270280.34
 20
345953.87
 10
270280.68
 20
345953.72
 10
270282.0300000001
 20
345953.5800000001
 10
270283.2800000001
 20
345954.09
 10
270281.62
 20
345956.37
 10
270290.97
 20
345961.0700000001
 10
270295.6
 20
345964.29
 10
270298.3
 20
345966.09
 10
270303.2
 20
345969.69
 10
270310.8
 20
345976.19
 10
270311.6
 20
345976.19
 10
270313.4
 20
345975.29
 10
270317.0
 20
345972.8
  0
LINE
  5
5AD
330
6F
100
AcDbEntity
  8
02_-_GENERAL_FEATURE
100
AcDbLine
 10
270317.0
 20
345993.32
 30
0.0
 11
270315.56
 21
345991.39
 31
0.0
  0
LWPOLYLINE
  5
5AE
330
6F
100
AcDbEntity
  8
02_-_GENERAL_FEATURE
100
AcDbPolyline
 90
        4
 70
     0
 43
0.0
 10
270232.89
 20
345949.7000000001
 10
270226.39
 20
345947.6
 10
270225.5900000001
 20
345947.0
 10
270224.3300000001
 20
345946.0700000001
  0
LINE
  5
5B4
330
6F
100
AcDbEntity
  8
02_-_GENERAL_FEATURE
100
AcDbLine
 10
270287.46
 20
345986.92
 30
0.0
 11
270291.36
 21
345989.82
 31
0.0
  0
LWPOLYLINE
  5
5B5
330
6F
100
AcDbEntity
  8
02_-_GENERAL_FEATURE
100
AcDbPolyline
 90
        5
 70
     0
 43
0.0
 10
270300.72
 20
345986.1400000001
 10
270300.2000000001
 20
345985.59
 10
270296.0
 20
345981.09
 10
270291.8
 20
345977.1900000001
 10
270288.1
 20
345974.3200000001
  0
LINE
  5
5BC
330
6F
100
AcDbEntity
  8
02_-_GENERAL_FEATURE
100
AcDbLine
 10
270315.44
 20
345920.6
 30
0.0
 11
270310.3400000001
 21
345929.6
 31
0.0
  0
LWPOLYLINE
  5
5BD
330
6F
100
AcDbEntity
  8
02_-_GENERAL_FEATURE
100
AcDbPolyline
 90
        5
 70
     0
 43
0.0
 10
270233.3
 20
345866.0
 10
270233.7
 20
345866.68
 10
270235.1
 20
345868.7800000001
 10
270235.8
 20
345869.48
 10
270236.7000000001
 20
345869.88
  0
LWPOLYLINE
  5
5C4
330
6F
100
AcDbEntity
  8
02_-_GENERAL_FEATURE
100
AcDbPolyline
 90
       27
 70
     0
 43
0.0
 10
270241.27
 20
345927.8900000001
 10
270242.03
 20
345929.01
 10
270242.99
 20
345929.72
 10
270263.06
 20
345935.98
 10
270263.56
 20
345935.24
 10
270265.86
 20
345931.85
 10
270266.14
 20
345931.9600000001
 10
270271.9
 20
345934.24
 10
270270.2700000001
 20
345939.13
 10
270271.86
 20
345939.33
 10
270273.05
 20
345938.7700000001
 10
270273.61
 20
345937.5100000001
 10
270273.48
 20
345935.42
 10
270273.05
 20
345934.2
 10
270271.9500000001
 20
345932.2800000001
 10
270268.89
 20
345928.68
 10
270268.33
 20
345928.2700000001
 10
270265.0800000001
 20
345925.88
 10
270263.5
 20
345925.0
 10
270248.21
 20
345921.26
 10
270245.5200000001
 20
345921.66
 10
270244.09
 20
345922.66
 10
270243.06
 20
345923.65
 10
270242.03
 20
345924.8800000001
 10
270241.31
 20
345926.2300000001
 10
270241.3
 20
345926.82
 10
270241.27
 20
345927.8900000001
  0
LINE
  5
5E1
330
6F
100
AcDbEntity
  8
02_-_GENERAL_FEATURE
100
AcDbLine
 10
270305.0
 20
345916.5100000001
 30
0.0
 11
270304.14
 21
345918.1
 31
0.0
  0
LINE
  5
5E2
330
6F
100
AcDbEntity
  8
02_-_GENERAL_FEATURE
100
AcDbLine
 10
270266.46
 20
346006.64
 30
0.0
 11
270268.3400000001
 21
346004.3000000001
 31
0.0
  0
LINE
  5
5E3
330
6F
100
AcDbEntity
  8
02_-_GENERAL_FEATURE
100
AcDbLine
 10
270268.52
 20
346011.42
 30
0.0
 11
270272.62
 21
346014.72
 31
0.0
  0
LWPOLYLINE
  5
5E4
330
6F
100
AcDbEntity
  8
02_-_GENERAL_FEATURE
100
AcDbPolyline
 90
        3
 70
     0
 43
0.0
 10
270314.92
 20
346000.65
 10
270312.8700000001
 20
346000.92
 10
270310.39
 20
346005.07
  0
LWPOLYLINE
  5
5E9
330
6F
100
AcDbEntity
  8
02_-_GENERAL_FEATURE
100
AcDbPolyline
 90
        3
 70
     0
 43
0.0
 10
270269.8
 20
345990.37
 10
270272.56
 20
345994.46
 10
270273.53
 20
345995.33
  0
LINE
  5
5EE
330
6F
100
AcDbEntity
  8
02_-_GENERAL_FEATURE
100
AcDbLine
 10
270288.1
 20
345974.3200000001
 30
0.0
 11
270282.9600000001
 21
345983.62
 31
0.0
  0
LINE
  5
5EF
330
6F
100
AcDbEntity
  8
11_-_NETWORK_OR_POLYGON_CLOSING
100
AcDbLine
 10
270223.0
 20
345881.28
 30
0.0
 11
270224.7
 21
345889.57
 31
0.0
  0
LINE
  5
5F0
330
6F
100
AcDbEntity
  8
11_-_NETWORK_OR_POLYGON_CLOSING
100
AcDbLine
 10
270237.81
 20
345892.69
 30
0.0
 11
270240.91
 21
345896.89
 31
0.0
  0
LWPOLYLINE
  5
5F1
330
6F
100
AcDbEntity
  8
22_-_ROAD_OR_TRACK
100
AcDbPolyline
 90
        3
 70
     0
 43
0.0
 10
270305.2700000001
 20
345866.0
 10
270305.5900000001
 20
345866.35
 10
270304.39
 20
345867.25
  0
LWPOLYLINE
  5
5F6
330
6F
100
AcDbEntity
  8
22_-_ROAD_OR_TRACK
100
AcDbPolyline
 90
       17
 70
     0
 43
0.0
 10
270237.06
 20
345939.59
 10
270237.6
 20
345940.42
 10
270238.0300000001
 20
345940.7700000001
 10
270238.29
 20
345940.92
 10
270238.7
 20
345941.11
 10
270239.76
 20
345941.48
 10
270249.26
 20
345944.8
 10
270257.9
 20
345947.87
 10
270261.94
 20
345949.45
 10
270263.25
 20
345949.8400000001
 10
270263.79
 20
345949.97
 10
270264.12
 20
345950.05
 10
270265.0300000001
 20
345950.27
 10
270265.74
 20
345950.41
 10
270266.32
 20
345950.5200000001
 10
270266.47
 20
345950.5300000001
 10
270266.84
 20
345950.56
  0
LWPOLYLINE
  5
609
330
6F
100
AcDbEntity
  8
22_-_ROAD_OR_TRACK
100
AcDbPolyline
 90
        6
 70
     0
 43
0.0
 10
270305.35
 20
345987.55
 10
270305.99
 20
345988.27
 10
270310.49
 20
345993.95
 10
270312.63
 20
345997.19
 10
270314.42
 20
346000.0
 10
270314.92
 20
346000.65
  0
LINE
  5
611
330
6F
100
AcDbEntity
  8
02_-_GENERAL_FEATURE
100
AcDbLine
 10
270315.44
 20
345920.6
 30
0.0
 11
270314.24
 21
345920.02
 31
0.0
  0
LWPOLYLINE
  5
612
330
6F
100
AcDbEntity
  8
01_-_GENERAL_SURFACE
100
AcDbPolyline
 90
        6
 70
     0
 43
0.0
 10
270257.08
 20
345982.88
 10
270251.29
 20
345991.21
 10
270250.07
 20
345992.9600000001
 10
270249.5300000001
 20
345993.74
 10
270251.49
 20
345995.1400000001
 10
270253.51
 20
345996.57
  0
LWPOLYLINE
  5
61A
330
6F
100
AcDbEntity
  8
11_-_NETWORK_OR_POLYGON_CLOSING
100
AcDbPolyline
 90
        3
 70
     0
 43
0.0
 10
270212.57
 20
345915.6
 10
270212.43
 20
345915.55
 10
270207.9400000001
 20
345928.23
  0
LWPOLYLINE
  5
61F
330
6F
100
AcDbEntity
  8
22_-_ROAD_OR_TRACK
100
AcDbPolyline
 90
        5
 70
     0
 43
0.0
 10
270236.7000000001
 20
345869.88
 10
270237.61
 20
345870.59
 10
270238.1900000001
 20
345871.04
 10
270239.11
 20
345871.47
 10
270240.49
 20
345871.6
  0
LINE
  5
626
330
6F
100
AcDbEntity
  8
04_-_LANDFORM
100
AcDbLine
 10
270167.79
 20
346016.0
 30
0.0
 11
270167.0
 21
346015.49
 31
0.0
  0
TEXT
  5
627
330
6F
100
AcDbEntity
  8
0
100
AcDbText
 10
270221.76
 20
345871.56
 30
0.0
 40
1.5
  1
6
 50
161.6
100
AcDbText
  0
TEXT
  5
628
330
6F
100
AcDbEntity
  8
0
100
AcDbText
 10
270213.26
 20
345874.7600000001
 30
0.0
 40
1.5
  1
5
 50
161.6
100
AcDbText
  0
TEXT
  5
629
330
6F
100
AcDbEntity
  8
0
100
AcDbText
 10
270193.07
 20
345948.17
 30
0.0
 40
1.5
  1
9
 50
18.4
100
AcDbText
  0
TEXT
  5
62A
330
6F
100
AcDbEntity
  8
0
100
AcDbText
 10
270177.93
 20
345927.4000000001
 30
0.0
 40
2.25
  1
TCB
100
AcDbText
  0
TEXT
  5
62B
330
6F
100
AcDbEntity
  8
0
100
AcDbText
 10
270168.33
 20
345940.04
 30
0.0
 40
1.5
  1
5
 50
18.4
100
AcDbText
  0
TEXT
  5
62C
330
6F
100
AcDbEntity
  8
0
100
AcDbText
 10
270171.1400000001
 20
345894.6500000001
 30
0.0
 40
2.629999999999999
  1
Hotel
100
AcDbText
  0
TEXT
  5
62D
330
6F
100
AcDbEntity
  8
0
100
AcDbText
 10
270243.747934536
 20
345889.3287487743
 30
0.0
 40
2.25
  1
FW
 50
321.8
 72
     2
 11
270247.98
 21
345887.43
 31
0.0
100
AcDbText
 73
     2
  0
TEXT
  5
62E
330
6F
100
AcDbEntity
  8
0
100
AcDbText
 10
270252.21
 20
345891.56
 30
0.0
 40
2.25
  1
CW
100
AcDbText
  0
TEXT
  5
62F
330
6F
100
AcDbEntity
  8
0
100
AcDbText
 10
270231.0800000001
 20
345872.3900000001
 30
0.0
 40
2.25
  1
CR
 50
51.79999999999999
100
AcDbText
  0
TEXT
  5
630
330
6F
100
AcDbEntity
  8
0
100
AcDbText
 10
270226.75
 20
345899.6500000001
 30
0.0
 40
1.5
  1
3
 50
156.7
100
AcDbText
  0
TEXT
  5
631
330
6F
100
AcDbEntity
  8
0
100
AcDbText
 10
270252.54
 20
345877.97
 30
0.0
 40
1.5
  1
9
 50
329.0
100
AcDbText
  0
TEXT
  5
632
330
6F
100
AcDbEntity
  8
0
100
AcDbText
 10
270213.48
 20
345934.08
 30
0.0
 40
2.06
  1
DOLGARREGDDU
 50
20.8
100
AcDbText
  0
TEXT
  5
633
330
6F
100
AcDbEntity
  8
0
100
AcDbText
 10
270207.5300000001
 20
345944.36
 30
0.0
 40
1.5
  1
10
 50
18.4
100
AcDbText
  0
TEXT
  5
634
330
6F
100
AcDbEntity
  8
0
100
AcDbText
 10
270232.8
 20
345954.62
 30
0.0
 40
1.5
  1
13
 50
20.0
100
AcDbText
  0
TEXT
  5
635
330
6F
100
AcDbEntity
  8
0
100
AcDbText
 10
270237.3400000001
 20
345916.88
 30
0.0
 40
2.25
  1
PCs
100
AcDbText
  0
TEXT
  5
636
330
6F
100
AcDbEntity
  8
0
100
AcDbText
 10
270220.22
 20
345902.1900000001
 30
0.0
 40
1.5
  1
2
 50
158.1
100
AcDbText
  0
TEXT
  5
637
330
6F
100
AcDbEntity
  8
0
100
AcDbText
 10
270212.7
 20
345909.27
 30
0.0
 40
1.5
  1
1
 50
154.5
100
AcDbText
  0
TEXT
  5
638
330
6F
100
AcDbEntity
  8
0
100
AcDbText
 10
270269.24
 20
345972.5300000001
 30
0.0
 40
1.5
  1
16
 50
35.0
100
AcDbText
  0
TEXT
  5
639
330
6F
100
AcDbEntity
  8
0
100
AcDbText
 10
270260.65
 20
345940.12
 30
0.0
 40
3.0
  1
Car Park
100
AcDbText
  0
TEXT
  5
63A
330
6F
100
AcDbEntity
  8
0
100
AcDbText
 10
270294.97
 20
345931.7700000001
 30
0.0
 40
1.5
  1
1
 50
211.0
100
AcDbText
  0
TEXT
  5
63B
330
6F
100
AcDbEntity
  8
0
100
AcDbText
 10
270293.32
 20
345939.32
 30
0.0
 40
2.06
  1
Ynys Terrace
 50
28.9
100
AcDbText
  0
TEXT
  5
63C
330
6F
100
AcDbEntity
  8
0
100
AcDbText
 10
270314.2000000001
 20
345868.29
 30
0.0
 40
1.5
  1
1
 50
230.0
100
AcDbText
  0
TEXT
  5
63D
330
6F
100
AcDbEntity
  8
0
100
AcDbText
 10
270296.11
 20
345870.65
 30
0.0
 40
1.5
  1
Kevnic
 50
318.9
100
AcDbText
  0
TEXT
  5
63E
330
6F
100
AcDbEntity
  8
0
100
AcDbText
 10
270189.72
 20
345888.1
 30
0.0
 40
2.06
  1
Church
 50
340.7
100
AcDbText
  0
TEXT
  5
63F
330
6F
100
AcDbEntity
  8
0
100
AcDbText
 10
270197.56
 20
345880.4600000001
 30
0.0
 40
1.5
  1
3
 50
161.6
100
AcDbText
  0
TEXT
  5
640
330
6F
100
AcDbEntity
  8
0
100
AcDbText
 10
270282.37
 20
346014.75
 30
0.0
 40
1.5
  1
4
 50
239.0
100
AcDbText
  0
TEXT
  5
641
330
6F
100
AcDbEntity
  8
0
100
AcDbText
 10
270267.89
 20
346010.19
 30
0.0
 40
1.5
  1
1
 50
224.8
100
AcDbText
  0
LINE
  5
642
330
6F
100
AcDbEntity
  8
14_-_POLITICAL_OR_ADMINISTRATIV
100
AcDbLine
 10
270267.76
 20
345895.59
 30
0.0
 11
270265.51
 21
345895.59
 31
0.0
  0
LWPOLYLINE
  5
643
330
6F
100
AcDbEntity
  8
14_-_POLITICAL_OR_ADMINISTRATIV
100
AcDbPolyline
 90
       35
 70
     0
 43
0.0
 10
270267.76
 20
345895.59
 10
270267.7700000001
 20
345895.7
 10
270267.8
 20
345895.82
 10
270267.85
 20
345895.9200000001
 10
270267.92
 20
345896.01
 10
270268.01
 20
345896.0900000001
 10
270268.11
 20
345896.15
 10
270268.21
 20
345896.19
 10
270268.33
 20
345896.21
 10
270268.44
 20
345896.21
 10
270268.5600000001
 20
345896.19
 10
270268.66
 20
345896.15
 10
270268.76
 20
345896.0900000001
 10
270268.85
 20
345896.01
 10
270268.92
 20
345895.9200000001
 10
270268.97
 20
345895.82
 10
270269.0
 20
345895.7
 10
270269.01
 20
345895.59
 10
270269.0
 20
345895.48
 10
270268.97
 20
345895.36
 10
270268.92
 20
345895.26
 10
270268.85
 20
345895.17
 10
270268.76
 20
345895.0900000001
 10
270268.66
 20
345895.0300000001
 10
270268.5600000001
 20
345894.99
 10
270268.44
 20
345894.97
 10
270268.33
 20
345894.97
 10
270268.21
 20
345894.99
 10
270268.11
 20
345895.0300000001
 10
270268.01
 20
345895.0900000001
 10
270267.92
 20
345895.17
 10
270267.85
 20
345895.26
 10
270267.8
 20
345895.36
 10
270267.7700000001
 20
345895.48
 10
270267.76
 20
345895.59
  0
LINE
  5
668
330
6F
100
AcDbEntity
  8
14_-_POLITICAL_OR_ADMINISTRATIV
100
AcDbLine
 10
270267.76
 20
345895.59
 30
0.0
 11
270265.51
 21
345895.59
 31
0.0
  0
LWPOLYLINE
  5
669
330
6F
100
AcDbEntity
  8
14_-_POLITICAL_OR_ADMINISTRATIV
100
AcDbPolyline
 90
       35
 70
     0
 43
0.0
 10
270267.76
 20
345895.59
 10
270267.7700000001
 20
345895.7
 10
270267.8
 20
345895.82
 10
270267.85
 20
345895.9200000001
 10
270267.92
 20
345896.01
 10
270268.01
 20
345896.0900000001
 10
270268.11
 20
345896.15
 10
270268.21
 20
345896.19
 10
270268.33
 20
345896.21
 10
270268.44
 20
345896.21
 10
270268.5600000001
 20
345896.19
 10
270268.66
 20
345896.15
 10
270268.76
 20
345896.0900000001
 10
270268.85
 20
345896.01
 10
270268.92
 20
345895.9200000001
 10
270268.97
 20
345895.82
 10
270269.0
 20
345895.7
 10
270269.01
 20
345895.59
 10
270269.0
 20
345895.48
 10
270268.97
 20
345895.36
 10
270268.92
 20
345895.26
 10
270268.85
 20
345895.17
 10
270268.76
 20
345895.0900000001
 10
270268.66
 20
345895.0300000001
 10
270268.5600000001
 20
345894.99
 10
270268.44
 20
345894.97
 10
270268.33
 20
345894.97
 10
270268.21
 20
345894.99
 10
270268.11
 20
345895.0300000001
 10
270268.01
 20
345895.0900000001
 10
270267.92
 20
345895.17
 10
270267.85
 20
345895.26
 10
270267.8
 20
345895.36
 10
270267.7700000001
 20
345895.48
 10
270267.76
 20
345895.59
  0
LWPOLYLINE
  5
68E
330
6F
100
AcDbEntity
  8
17_-_STRUCTURE
100
AcDbPolyline
 90
       35
 70
     0
 43
0.0
 10
270242.82
 20
345866.7800000001
 10
270242.8300000001
 20
345866.85
 10
270242.85
 20
345866.92
 10
270242.88
 20
345866.98
 10
270242.92
 20
345867.04
 10
270242.97
 20
345867.08
 10
270243.03
 20
345867.12
 10
270243.1
 20
345867.1500000001
 10
270243.16
 20
345867.16
 10
270243.24
 20
345867.16
 10
270243.3
 20
345867.1500000001
 10
270243.37
 20
345867.12
 10
270243.43
 20
345867.08
 10
270243.48
 20
345867.04
 10
270243.52
 20
345866.98
 10
270243.55
 20
345866.92
 10
270243.57
 20
345866.85
 10
270243.58
 20
345866.7800000001
 10
270243.57
 20
345866.71
 10
270243.55
 20
345866.6400000001
 10
270243.52
 20
345866.58
 10
270243.48
 20
345866.52
 10
270243.43
 20
345866.48
 10
270243.37
 20
345866.44
 10
270243.3
 20
345866.41
 10
270243.24
 20
345866.4000000001
 10
270243.16
 20
345866.4000000001
 10
270243.1
 20
345866.41
 10
270243.03
 20
345866.44
 10
270242.97
 20
345866.48
 10
270242.92
 20
345866.52
 10
270242.88
 20
345866.58
 10
270242.85
 20
345866.6400000001
 10
270242.8300000001
 20
345866.71
 10
270242.82
 20
345866.7800000001
  0
LINE
  5
6B3
330
6F
100
AcDbEntity
  8
14_-_POLITICAL_OR_ADMINISTRATIV
100
AcDbLine
 10
270262.26
 20
345887.39
 30
0.0
 11
270260.01
 21
345887.39
 31
0.0
  0
LWPOLYLINE
  5
6B4
330
6F
100
AcDbEntity
  8
14_-_POLITICAL_OR_ADMINISTRATIV
100
AcDbPolyline
 90
       35
 70
     0
 43
0.0
 10
270262.26
 20
345887.39
 10
270262.27
 20
345887.5000000001
 10
270262.3
 20
345887.6200000001
 10
270262.35
 20
345887.72
 10
270262.42
 20
345887.8100000001
 10
270262.5100000001
 20
345887.8900000001
 10
270262.61
 20
345887.95
 10
270262.7100000001
 20
345887.99
 10
270262.8300000001
 20
345888.01
 10
270262.94
 20
345888.01
 10
270263.06
 20
345887.99
 10
270263.16
 20
345887.95
 10
270263.26
 20
345887.8900000001
 10
270263.35
 20
345887.8100000001
 10
270263.42
 20
345887.72
 10
270263.47
 20
345887.6200000001
 10
270263.5
 20
345887.5000000001
 10
270263.51
 20
345887.39
 10
270263.5
 20
345887.28
 10
270263.47
 20
345887.16
 10
270263.42
 20
345887.06
 10
270263.35
 20
345886.97
 10
270263.26
 20
345886.8900000001
 10
270263.16
 20
345886.8300000001
 10
270263.06
 20
345886.79
 10
270262.94
 20
345886.7700000001
 10
270262.8300000001
 20
345886.7700000001
 10
270262.7100000001
 20
345886.79
 10
270262.61
 20
345886.8300000001
 10
270262.5100000001
 20
345886.8900000001
 10
270262.42
 20
345886.97
 10
270262.35
 20
345887.06
 10
270262.3
 20
345887.16
 10
270262.27
 20
345887.28
 10
270262.26
 20
345887.39
  0
LINE
  5
6D9
330
6F
100
AcDbEntity
  8
14_-_POLITICAL_OR_ADMINISTRATIV
100
AcDbLine
 10
270262.26
 20
345887.39
 30
0.0
 11
270260.01
 21
345887.39
 31
0.0
  0
LWPOLYLINE
  5
6DA
330
6F
100
AcDbEntity
  8
14_-_POLITICAL_OR_ADMINISTRATIV
100
AcDbPolyline
 90
       35
 70
     0
 43
0.0
 10
270262.26
 20
345887.39
 10
270262.27
 20
345887.5000000001
 10
270262.3
 20
345887.6200000001
 10
270262.35
 20
345887.72
 10
270262.42
 20
345887.8100000001
 10
270262.5100000001
 20
345887.8900000001
 10
270262.61
 20
345887.95
 10
270262.7100000001
 20
345887.99
 10
270262.8300000001
 20
345888.01
 10
270262.94
 20
345888.01
 10
270263.06
 20
345887.99
 10
270263.16
 20
345887.95
 10
270263.26
 20
345887.8900000001
 10
270263.35
 20
345887.8100000001
 10
270263.42
 20
345887.72
 10
270263.47
 20
345887.6200000001
 10
270263.5
 20
345887.5000000001
 10
270263.51
 20
345887.39
 10
270263.5
 20
345887.28
 10
270263.47
 20
345887.16
 10
270263.42
 20
345887.06
 10
270263.35
 20
345886.97
 10
270263.26
 20
345886.8900000001
 10
270263.16
 20
345886.8300000001
 10
270263.06
 20
345886.79
 10
270262.94
 20
345886.7700000001
 10
270262.8300000001
 20
345886.7700000001
 10
270262.7100000001
 20
345886.79
 10
270262.61
 20
345886.8300000001
 10
270262.5100000001
 20
345886.8900000001
 10
270262.42
 20
345886.97
 10
270262.35
 20
345887.06
 10
270262.3
 20
345887.16
 10
270262.27
 20
345887.28
 10
270262.26
 20
345887.39
  0
LINE
  5
6FF
330
6F
100
AcDbEntity
  8
05_-_HEIGHT_CONTROL
100
AcDbLine
 10
270246.47
 20
345866.48
 30
0.0
 11
270244.7
 21
345866.48
 31
0.0
  0
LWPOLYLINE
  5
700
330
6F
100
AcDbEntity
  8
05_-_HEIGHT_CONTROL
100
AcDbPolyline
 90
        3
 70
     0
 43
0.0
 10
270245.58
 20
345867.36
 10
270244.7
 20
345866.48
 10
270245.18
 20
345866.0
  0
LINE
  5
705
330
6F
100
AcDbEntity
  8
14_-_POLITICAL_OR_ADMINISTRATIV
100
AcDbLine
 10
270249.76
 20
345879.49
 30
0.0
 11
270247.51
 21
345879.49
 31
0.0
  0
LWPOLYLINE
  5
706
330
6F
100
AcDbEntity
  8
14_-_POLITICAL_OR_ADMINISTRATIV
100
AcDbPolyline
 90
       35
 70
     0
 43
0.0
 10
270249.76
 20
345879.49
 10
270249.77
 20
345879.6
 10
270249.8
 20
345879.72
 10
270249.85
 20
345879.82
 10
270249.92
 20
345879.91
 10
270250.01
 20
345879.9900000001
 10
270250.11
 20
345880.0500000001
 10
270250.21
 20
345880.0900000001
 10
270250.33
 20
345880.11
 10
270250.44
 20
345880.11
 10
270250.56
 20
345880.0900000001
 10
270250.66
 20
345880.0500000001
 10
270250.7600000001
 20
345879.9900000001
 10
270250.85
 20
345879.91
 10
270250.92
 20
345879.82
 10
270250.97
 20
345879.72
 10
270251.0
 20
345879.6
 10
270251.01
 20
345879.49
 10
270251.0
 20
345879.38
 10
270250.97
 20
345879.2600000001
 10
270250.92
 20
345879.16
 10
270250.85
 20
345879.07
 10
270250.7600000001
 20
345878.99
 10
270250.66
 20
345878.93
 10
270250.56
 20
345878.89
 10
270250.44
 20
345878.87
 10
270250.33
 20
345878.87
 10
270250.21
 20
345878.89
 10
270250.11
 20
345878.93
 10
270250.01
 20
345878.99
 10
270249.92
 20
345879.07
 10
270249.85
 20
345879.16
 10
270249.8
 20
345879.2600000001
 10
270249.77
 20
345879.38
 10
270249.76
 20
345879.49
  0
LINE
  5
72B
330
6F
100
AcDbEntity
  8
14_-_POLITICAL_OR_ADMINISTRATIV
100
AcDbLine
 10
270249.76
 20
345879.49
 30
0.0
 11
270247.51
 21
345879.49
 31
0.0
  0
LWPOLYLINE
  5
72C
330
6F
100
AcDbEntity
  8
14_-_POLITICAL_OR_ADMINISTRATIV
100
AcDbPolyline
 90
       35
 70
     0
 43
0.0
 10
270249.76
 20
345879.49
 10
270249.77
 20
345879.6
 10
270249.8
 20
345879.72
 10
270249.85
 20
345879.82
 10
270249.92
 20
345879.91
 10
270250.01
 20
345879.9900000001
 10
270250.11
 20
345880.0500000001
 10
270250.21
 20
345880.0900000001
 10
270250.33
 20
345880.11
 10
270250.44
 20
345880.11
 10
270250.56
 20
345880.0900000001
 10
270250.66
 20
345880.0500000001
 10
270250.7600000001
 20
345879.9900000001
 10
270250.85
 20
345879.91
 10
270250.92
 20
345879.82
 10
270250.97
 20
345879.72
 10
270251.0
 20
345879.6
 10
270251.01
 20
345879.49
 10
270251.0
 20
345879.38
 10
270250.97
 20
345879.2600000001
 10
270250.92
 20
345879.16
 10
270250.85
 20
345879.07
 10
270250.7600000001
 20
345878.99
 10
270250.66
 20
345878.93
 10
270250.56
 20
345878.89
 10
270250.44
 20
345878.87
 10
270250.33
 20
345878.87
 10
270250.21
 20
345878.89
 10
270250.11
 20
345878.93
 10
270250.01
 20
345878.99
 10
270249.92
 20
345879.07
 10
270249.85
 20
345879.16
 10
270249.8
 20
345879.2600000001
 10
270249.77
 20
345879.38
 10
270249.76
 20
345879.49
  0
LWPOLYLINE
  5
751
330
6F
100
AcDbEntity
  8
17_-_STRUCTURE
100
AcDbPolyline
 90
       35
 70
     0
 43
0.0
 10
270186.0100000001
 20
345931.8000000001
 10
270186.02
 20
345931.87
 10
270186.04
 20
345931.94
 10
270186.0700000001
 20
345932.0
 10
270186.11
 20
345932.06
 10
270186.16
 20
345932.1
 10
270186.22
 20
345932.14
 10
270186.29
 20
345932.17
 10
270186.35
 20
345932.18
 10
270186.43
 20
345932.18
 10
270186.49
 20
345932.17
 10
270186.56
 20
345932.14
 10
270186.62
 20
345932.1
 10
270186.67
 20
345932.06
 10
270186.7100000001
 20
345932.0
 10
270186.74
 20
345931.94
 10
270186.76
 20
345931.87
 10
270186.7700000001
 20
345931.8000000001
 10
270186.76
 20
345931.73
 10
270186.74
 20
345931.66
 10
270186.7100000001
 20
345931.6
 10
270186.67
 20
345931.54
 10
270186.62
 20
345931.5
 10
270186.56
 20
345931.4600000001
 10
270186.49
 20
345931.43
 10
270186.43
 20
345931.42
 10
270186.35
 20
345931.42
 10
270186.29
 20
345931.43
 10
270186.22
 20
345931.4600000001
 10
270186.16
 20
345931.5
 10
270186.11
 20
345931.54
 10
270186.0700000001
 20
345931.6
 10
270186.04
 20
345931.66
 10
270186.02
 20
345931.73
 10
270186.0100000001
 20
345931.8000000001
  0
LWPOLYLINE
  5
776
330
6F
100
AcDbEntity
  8
MM_FRAME
100
AcDbPolyline
 90
        5
 70
     0
 43
0.0
 10
270167.0
 20
345866.0
 10
270167.0
 20
346016.0
 10
270317.0
 20
346016.0
 10
270317.0
 20
345866.0
 10
270167.0
 20
345866.0
  0
LWPOLYLINE
  5
77D
330
6F
100
AcDbEntity
  8
MM_FRAME
100
AcDbPolyline
 90
        5
 70
     0
 43
0.0
 10
270159.0
 20
345858.0
 10
270159.0
 20
346024.0
 10
270325.0
 20
346024.0
 10
270325.0
 20
345858.0
 10
270159.0
 20
345858.0
  0
TEXT
  5
784
330
6F
100
AcDbEntity
  8
MM_FRAME
100
AcDbText
 10
270318.9333333333
 20
345865.5
 30
0.0
 40
1.0
  1
345866
 72
     2
 11
270324.6
 21
345865.5
 31
0.0
100
AcDbText
  0
TEXT
  5
785
330
6F
100
AcDbEntity
  8
MM_FRAME
100
AcDbText
 10
270159.4
 20
345865.5
 30
0.0
 40
1.0
  1
345866
100
AcDbText
  0
TEXT
  5
786
330
6F
100
AcDbEntity
  8
MM_FRAME
100
AcDbText
 10
270319.4333333333
 20
346015.5
 30
0.0
 40
1.0
  1
346016
 72
     2
 11
270324.6
 21
346015.5
 31
0.0
100
AcDbText
  0
TEXT
  5
787
330
6F
100
AcDbEntity
  8
MM_FRAME
100
AcDbText
 10
270159.4
 20
346015.5
 30
0.0
 40
1.0
  1
346016
100
AcDbText
  0
TEXT
  5
788
330
6F
100
AcDbEntity
  8
0
100
AcDbText
 10
270319.2666666667
 20
345899.5
 30
0.0
 40
1.0
  1
345900
 72
     2
 11
270324.6
 21
345899.5
 31
0.0
100
AcDbText
  0
TEXT
  5
789
330
6F
100
AcDbEntity
  8
0
100
AcDbText
 10
270159.4
 20
345899.5
 30
0.0
 40
1.0
  1
345900
100
AcDbText
  0
LINE
  5
78A
330
6F
100
AcDbEntity
  8
MM_FRAME
100
AcDbLine
 10
270167.0
 20
345900.0
 30
0.0
 11
270317.0
 21
345900.0
 31
0.0
  0
TEXT
  5
78B
330
6F
100
AcDbEntity
  8
0
100
AcDbText
 10
270319.4333333333
 20
345999.5
 30
0.0
 40
1.0
  1
346000
 72
     2
 11
270324.6
 21
345999.5
 31
0.0
100
AcDbText
  0
TEXT
  5
78C
330
6F
100
AcDbEntity
  8
0
100
AcDbText
 10
270159.4
 20
345999.5
 30
0.0
 40
1.0
  1
346000
100
AcDbText
  0
LINE
  5
78D
330
6F
100
AcDbEntity
  8
MM_FRAME
100
AcDbLine
 10
270167.0
 20
346000.0
 30
0.0
 11
270317.0
 21
346000.0
 31
0.0
  0
TEXT
  5
78E
330
6F
100
AcDbEntity
  8
MM_FRAME
100
AcDbText
 10
270166.5
 20
346023.6
 30
0.0
 40
1.0
  1
270167
 50
270.0
100
AcDbText
  0
TEXT
  5
78F
330
6F
100
AcDbEntity
  8
MM_FRAME
100
AcDbText
 10
270166.5
 20
345863.5666666668
 30
0.0
 40
1.0
  1
270167
 50
270.0
 72
     2
 11
270166.5
 21
345858.4
 31
0.0
100
AcDbText
  0
TEXT
  5
790
330
6F
100
AcDbEntity
  8
MM_FRAME
100
AcDbText
 10
270316.5
 20
346023.6
 30
0.0
 40
1.0
  1
270317
 50
270.0
100
AcDbText
  0
TEXT
  5
791
330
6F
100
AcDbEntity
  8
MM_FRAME
100
AcDbText
 10
270316.5
 20
345863.5666666668
 30
0.0
 40
1.0
  1
270317
 50
270.0
 72
     2
 11
270316.5
 21
345858.4
 31
0.0
100
AcDbText
  0
TEXT
  5
792
330
6F
100
AcDbEntity
  8
0
100
AcDbText
 10
270199.5
 20
346023.6
 30
0.0
 40
1.0
  1
270200
 50
270.0
100
AcDbText
  0
TEXT
  5
793
330
6F
100
AcDbEntity
  8
0
100
AcDbText
 10
270199.5
 20
345863.5666666668
 30
0.0
 40
1.0
  1
270200
 50
270.0
 72
     2
 11
270199.5
 21
345858.4
 31
0.0
100
AcDbText
  0
LINE
  5
794
330
6F
100
AcDbEntity
  8
MM_FRAME
100
AcDbLine
 10
270200.0
 20
345866.0
 30
0.0
 11
270200.0
 21
346016.0
 31
0.0
  0
TEXT
  5
795
330
6F
100
AcDbEntity
  8
0
100
AcDbText
 10
270299.5
 20
346023.6
 30
0.0
 40
1.0
  1
270300
 50
270.0
100
AcDbText
  0
TEXT
  5
796
330
6F
100
AcDbEntity
  8
0
100
AcDbText
 10
270299.5
 20
345863.5666666668
 30
0.0
 40
1.0
  1
270300
 50
270.0
 72
     2
 11
270299.5
 21
345858.4
 31
0.0
100
AcDbText
  0
LINE
  5
797
330
6F
100
AcDbEntity
  8
MM_FRAME
100
AcDbLine
 10
270300.0
 20
345866.0
 30
0.0
 11
270300.0
 21
346016.0
 31
0.0
  0
LINE
  5
798
330
6F
100
AcDbEntity
  8
0
100
AcDbLine
 10
270212.0
 20
345841.5300000001
 30
0.0
 11
270272.0
 21
345841.5300000001
 31
0.0
  0
LINE
  5
799
330
6F
100
AcDbEntity
  8
0
100
AcDbLine
 10
270212.0
 20
345840.03
 30
0.0
 11
270212.0
 21
345843.5300000001
 31
0.0
  0
TEXT
  5
79A
330
6F
100
AcDbEntity
  8
0
100
AcDbText
 10
270211.5333333333
 20
345844.5300000001
 30
0.0
 40
0.8
  1
10
 72
     1
 11
270212.0
 21
345844.5300000001
 31
0.0
100
AcDbText
  0
LINE
  5
79B
330
6F
100
AcDbEntity
  8
0
100
AcDbLine
 10
270222.0
 20
345840.03
 30
0.0
 11
270222.0
 21
345843.5300000001
 31
0.0
  0
TEXT
  5
79C
330
6F
100
AcDbEntity
  8
0
100
AcDbText
 10
270221.8
 20
345844.5300000001
 30
0.0
 40
0.8
  1
0
 72
     1
 11
270222.0
 21
345844.5300000001
 31
0.0
100
AcDbText
  0
LINE
  5
79D
330
6F
100
AcDbEntity
  8
0
100
AcDbLine
 10
270232.0
 20
345840.03
 30
0.0
 11
270232.0
 21
345843.5300000001
 31
0.0
  0
TEXT
  5
79E
330
6F
100
AcDbEntity
  8
0
100
AcDbText
 10
270231.5333333333
 20
345844.5300000001
 30
0.0
 40
0.8
  1
10
 72
     1
 11
270232.0
 21
345844.5300000001
 31
0.0
100
AcDbText
  0
LINE
  5
79F
330
6F
100
AcDbEntity
  8
0
100
AcDbLine
 10
270242.0
 20
345840.03
 30
0.0
 11
270242.0
 21
345843.5300000001
 31
0.0
  0
TEXT
  5
7A0
330
6F
100
AcDbEntity
  8
0
100
AcDbText
 10
270241.4
 20
345844.5300000001
 30
0.0
 40
0.8
  1
20
 72
     1
 11
270242.0
 21
345844.5300000001
 31
0.0
100
AcDbText
  0
LINE
  5
7A1
330
6F
100
AcDbEntity
  8
0
100
AcDbLine
 10
270252.0
 20
345840.03
 30
0.0
 11
270252.0
 21
345843.5300000001
 31
0.0
  0
TEXT
  5
7A2
330
6F
100
AcDbEntity
  8
0
100
AcDbText
 10
270251.4000000001
 20
345844.5300000001
 30
0.0
 40
0.8
  1
30
 72
     1
 11
270252.0
 21
345844.5300000001
 31
0.0
100
AcDbText
  0
LINE
  5
7A3
330
6F
100
AcDbEntity
  8
0
100
AcDbLine
 10
270262.0
 20
345840.03
 30
0.0
 11
270262.0
 21
345843.5300000001
 31
0.0
  0
TEXT
  5
7A4
330
6F
100
AcDbEntity
  8
0
100
AcDbText
 10
270261.4
 20
345844.5300000001
 30
0.0
 40
0.8
  1
40
 72
     1
 11
270262.0
 21
345844.5300000001
 31
0.0
100
AcDbText
  0
LINE
  5
7A5
330
6F
100
AcDbEntity
  8
0
100
AcDbLine
 10
270272.0
 20
345840.03
 30
0.0
 11
270272.0
 21
345843.5300000001
 31
0.0
  0
TEXT
  5
7A6
330
6F
100
AcDbEntity
  8
0
100
AcDbText
 10
270271.4
 20
345844.5300000001
 30
0.0
 40
0.8
  1
50
 72
     1
 11
270272.0
 21
345844.5300000001
 31
0.0
100
AcDbText
  0
LINE
  5
7A7
330
6F
100
AcDbEntity
  8
0
100
AcDbLine
 10
270213.0
 20
345841.5300000001
 30
0.0
 11
270213.0
 21
345842.53
 31
0.0
  0
LINE
  5
7A8
330
6F
100
AcDbEntity
  8
0
100
AcDbLine
 10
270214.0
 20
345841.5300000001
 30
0.0
 11
270214.0
 21
345842.53
 31
0.0
  0
LINE
  5
7A9
330
6F
100
AcDbEntity
  8
0
100
AcDbLine
 10
270215.0
 20
345841.5300000001
 30
0.0
 11
270215.0
 21
345842.53
 31
0.0
  0
LINE
  5
7AA
330
6F
100
AcDbEntity
  8
0
100
AcDbLine
 10
270216.0
 20
345841.5300000001
 30
0.0
 11
270216.0
 21
345842.53
 31
0.0
  0
LINE
  5
7AB
330
6F
100
AcDbEntity
  8
0
100
AcDbLine
 10
270217.0
 20
345840.33
 30
0.0
 11
270217.0
 21
345842.53
 31
0.0
  0
LINE
  5
7AC
330
6F
100
AcDbEntity
  8
0
100
AcDbLine
 10
270218.0
 20
345841.5300000001
 30
0.0
 11
270218.0
 21
345842.53
 31
0.0
  0
LINE
  5
7AD
330
6F
100
AcDbEntity
  8
0
100
AcDbLine
 10
270219.0
 20
345841.5300000001
 30
0.0
 11
270219.0
 21
345842.53
 31
0.0
  0
LINE
  5
7AE
330
6F
100
AcDbEntity
  8
0
100
AcDbLine
 10
270220.0
 20
345841.5300000001
 30
0.0
 11
270220.0
 21
345842.53
 31
0.0
  0
LINE
  5
7AF
330
6F
100
AcDbEntity
  8
0
100
AcDbLine
 10
270221.0
 20
345841.5300000001
 30
0.0
 11
270221.0
 21
345842.53
 31
0.0
  0
TEXT
  5
7B0
330
6F
100
AcDbEntity
  8
0
100
AcDbText
 10
270239.1666666667
 20
345837.53
 30
0.0
 40
1.0
  1
metres
 72
     1
 11
270242.0
 21
345838.5300000001
 31
0.0
100
AcDbText
 73
     3
  0
TEXT
  5
7B1
330
6F
100
AcDbEntity
  8
0
100
AcDbText
 10
270159.4
 20
345853.6500000001
 30
0.0
 40
1.0
  1
Serial number: xxxxx1
100
AcDbText
  0
TEXT
  5
7B2
330
6F
100
AcDbEntity
  8
0
100
AcDbText
 10
270159.4
 20
345850.6500000001
 30
0.0
 40
1.0
  1
  Crown copyright and database right 2019
100
AcDbText
  0
LWPOLYLINE
  5
7B3
330
6F
100
AcDbEntity
  8
0
100
AcDbPolyline
 90
       13
 70
     0
 43
0.0
 10
270160.4000000001
 20
345851.6
 10
270160.68
 20
345851.5300000001
 10
270160.8800000001
 20
345851.3300000001
 10
270160.95
 20
345851.05
 10
270160.8800000001
 20
345850.78
 10
270160.68
 20
345850.57
 10
270160.4000000001
 20
345850.5000000001
 10
270160.13
 20
345850.57
 10
270159.92
 20
345850.78
 10
270159.85
 20
345851.05
 10
270159.92
 20
345851.3300000001
 10
270160.13
 20
345851.5300000001
 10
270160.4000000001
 20
345851.6
  0
TEXT
  5
7C2
330
6F
100
AcDbEntity
  8
0
100
AcDbText
 10
270160.1800000001
 20
345850.72
 30
0.0
 40
0.6600000000000001
  1
C
 72
     1
 11
270160.4000000001
 21
345851.05
 31
0.0
100
AcDbText
 73
     2
  0
TEXT
  5
7C3
330
6F
100
AcDbEntity
  8
0
100
AcDbText
 10
270159.4
 20
345848.65
 30
0.0
 40
1.0
  1
Ordnance Survey licence 100048957
100
AcDbText
  0
TEXT
  5
7C4
330
6F
100
AcDbEntity
  8
0
100
AcDbText
 10
270159.4
 20
345846.65
 30
0.0
 40
1.0
  1
Reproduction in whole or in part is prohibited
100
AcDbText
  0
TEXT
  5
7C5
330
6F
100
AcDbEntity
  8
0
100
AcDbText
 10
270159.4
 20
345844.65
 30
0.0
 40
1.0
  1
without the prior permission of Ordnance Survey
100
AcDbText
  0
TEXT
  5
7C6
330
6F
100
AcDbEntity
  8
0
100
AcDbText
 10
270159.4
 20
346033.6
 30
0.0
 40
2.0
  1
Ordnance Survey
100
AcDbText
  0
LWPOLYLINE
  5
7C7
330
6F
100
AcDbEntity
  8
0
100
AcDbPolyline
 90
       13
 70
     0
 43
0.0
 10
270190.0
 20
346035.2
 10
270190.3
 20
346035.12
 10
270190.5200000001
 20
346034.9
 10
270190.6
 20
346034.6
 10
270190.5200000001
 20
346034.3
 10
270190.3
 20
346034.08
 10
270190.0
 20
346034.0
 10
270189.7000000001
 20
346034.08
 10
270189.48
 20
346034.3
 10
270189.4000000001
 20
346034.6
 10
270189.48
 20
346034.9
 10
270189.7000000001
 20
346035.12
 10
270190.0
 20
346035.2
  0
TEXT
  5
7D6
330
6F
100
AcDbEntity
  8
0
100
AcDbText
 10
270189.7600000001
 20
346034.24
 30
0.0
 40
0.72
  1
R
 72
     1
 11
270190.0
 21
346034.6
 31
0.0
100
AcDbText
 73
     2
  0
TEXT
  5
7D7
330
6F
100
AcDbEntity
  8
0
100
AcDbText
 10
270159.4
 20
346030.0
 30
0.0
 40
2.0
  1
Ukmapcentre.com
100
AcDbText
  0
LWPOLYLINE
  5
7D8
330
6F
100
AcDbEntity
  8
0
100
AcDbPolyline
 90
       13
 70
     0
 43
0.0
 10
270317.0
 20
345854.6
 10
270320.8
 20
345853.5800000001
 10
270323.58
 20
345850.8
 10
270324.6
 20
345847.0
 10
270323.58
 20
345843.2000000001
 10
270320.8
 20
345840.42
 10
270317.0
 20
345839.4000000001
 10
270313.2
 20
345840.42
 10
270310.42
 20
345843.2000000001
 10
270309.4
 20
345847.0
 10
270310.42
 20
345850.8
 10
270313.2
 20
345853.5800000001
 10
270317.0
 20
345854.6
  0
LINE
  5
7E7
330
6F
100
AcDbEntity
  8
0
100
AcDbLine
 10
270317.0
 20
345854.6
 30
0.0
 11
270317.0
 21
345839.4000000001
 31
0.0
  0
LWPOLYLINE
  5
7E8
330
6F
100
AcDbEntity
  8
0
100
AcDbPolyline
 90
        4
 70
     0
 43
0.0
 10
270314.72
 20
345850.95
 10
270317.0
 20
345854.6
 10
270319.28
 20
345850.95
 10
270314.72
 20
345850.95
  0
ENDSEC
  0
SECTION
  2
OBJECTS
  0
DICTIONARY
  5
C
330
0
100
AcDbDictionary
281
     1
  3
ACAD_CIP_PREVIOUS_PRODUCT_INFO
350
7EF
  3
ACAD_COLOR
350
62
  3
ACAD_DETAILVIEWSTYLE
350
69
  3
ACAD_GROUP
350
D
  3
ACAD_LAYOUT
350
61
  3
ACAD_MATERIAL
350
10
  3
ACAD_MLEADERSTYLE
350
65
  3
ACAD_MLINESTYLE
350
5E
  3
ACAD_PLOTSETTINGS
350
60
  3
ACAD_PLOTSTYLENAME
350
E
  3
ACAD_SCALELIST
350
42
  3
ACAD_SECTIONVIEWSTYLE
350
67
  3
ACAD_TABLESTYLE
350
63
  3
ACAD_VISUALSTYLE
350
29
  3
ACDB_RECOMPOSE_DATA
350
854
  3
AcDbVariableDictionary
350
806
  3
DWGPROPS
350
855
  0
DICTIONARY
  5
7F0
330
54
100
AcDbDictionary
280
     1
281
     1
  3
ADSK_XREC_LAYER_RECONCILED
360
7F1
  0
DICTIONARY
  5
7F2
330
73
100
AcDbDictionary
280
     1
281
     1
  3
ADSK_XREC_LAYER_RECONCILED
360
7F3
  0
DICTIONARY
  5
7F4
330
74
100
AcDbDictionary
280
     1
281
     1
  3
ADSK_XREC_LAYER_RECONCILED
360
7F5
  0
DICTIONARY
  5
7F6
330
75
100
AcDbDictionary
280
     1
281
     1
  3
ADSK_XREC_LAYER_RECONCILED
360
7F7
  0
DICTIONARY
  5
7F8
330
76
100
AcDbDictionary
280
     1
281
     1
  3
ADSK_XREC_LAYER_RECONCILED
360
7F9
  0
DICTIONARY
  5
7FA
330
77
100
AcDbDictionary
280
     1
281
     1
  3
ADSK_XREC_LAYER_RECONCILED
360
7FB
  0
DICTIONARY
  5
7FC
330
78
100
AcDbDictionary
280
     1
281
     1
  3
ADSK_XREC_LAYER_RECONCILED
360
7FD
  0
DICTIONARY
  5
7FE
330
79
100
AcDbDictionary
280
     1
281
     1
  3
ADSK_XREC_LAYER_RECONCILED
360
7FF
  0
DICTIONARY
  5
800
330
7A
100
AcDbDictionary
280
     1
281
     1
  3
ADSK_XREC_LAYER_RECONCILED
360
801
  0
DICTIONARY
  5
802
330
7B
100
AcDbDictionary
280
     1
281
     1
  3
ADSK_XREC_LAYER_RECONCILED
360
803
  0
DICTIONARY
  5
804
330
7C
100
AcDbDictionary
280
     1
281
     1
  3
ADSK_XREC_LAYER_RECONCILED
360
805
  0
XRECORD
  5
7EF
102
{ACAD_REACTORS
330
C
102
}
330
C
100
AcDbXrecord
280
     1
300
ACDLT
300
2018
300

  0
DICTIONARY
  5
62
102
{ACAD_REACTORS
330
C
102
}
330
C
100
AcDbDictionary
281
     1
  0
DICTIONARY
  5
69
102
{ACAD_REACTORS
330
C
102
}
330
C
100
AcDbDictionary
281
     1
  3
Imperial24
350
6A
  0
DICTIONARY
  5
D
102
{ACAD_REACTORS
330
C
102
}
330
C
100
AcDbDictionary
281
     1
  0
DICTIONARY
  5
61
102
{ACAD_REACTORS
330
C
102
}
330
C
100
AcDbDictionary
281
     1
  3
Layout1
350
6E
  3
Model
350
72
  0
DICTIONARY
  5
10
102
{ACAD_REACTORS
330
C
102
}
330
C
100
AcDbDictionary
281
     1
  3
ByBlock
350
19
  3
ByLayer
350
11
  3
Global
350
21
  0
DICTIONARY
  5
65
102
{ACAD_REACTORS
330
C
102
}
330
C
100
AcDbDictionary
281
     1
  3
Standard
350
66
  0
DICTIONARY
  5
5E
102
{ACAD_REACTORS
330
C
102
}
330
C
100
AcDbDictionary
281
     1
  3
Standard
350
5F
  0
DICTIONARY
  5
60
102
{ACAD_REACTORS
330
C
102
}
330
C
100
AcDbDictionary
281
     1
  0
ACDBDICTIONARYWDFLT
  5
E
102
{ACAD_REACTORS
330
C
102
}
330
C
100
AcDbDictionary
281
     1
  3
Normal
350
F
100
AcDbDictionaryWithDefault
340
F
  0
DICTIONARY
  5
42
102
{ACAD_REACTORS
330
C
102
}
330
C
100
AcDbDictionary
281
     1
  3
A0
350
43
  3
A1
350
44
  3
A2
350
45
  3
A3
350
46
  3
A4
350
47
  3
A5
350
48
  3
A6
350
49
  3
A7
350
4A
  3
A8
350
4B
  3
A9
350
4C
  3
B0
350
4D
  3
B1
350
4E
  3
B2
350
4F
  3
B3
350
50
  3
B4
350
51
  3
B5
350
52
  3
B6
350
53
  0
DICTIONARY
  5
67
102
{ACAD_REACTORS
330
C
102
}
330
C
100
AcDbDictionary
281
     1
  3
Imperial24
350
68
  0
DICTIONARY
  5
63
102
{ACAD_REACTORS
330
C
102
}
330
C
100
AcDbDictionary
281
     1
  3
Standard
350
64
  0
DICTIONARY
  5
29
102
{ACAD_REACTORS
330
C
102
}
330
C
100
AcDbDictionary
281
     1
  3
2dWireframe
350
2F
  3
Basic
350
2E
  3
Brighten
350
35
  3
ColorChange
350
39
  3
Conceptual
350
32
  3
Dim
350
34
  3
EdgeColorOff
350
41
  3
Facepattern
350
38
  3
Flat
350
2A
  3
FlatWithEdges
350
2B
  3
Gouraud
350
2C
  3
GouraudWithEdges
350
2D
  3
Hidden
350
31
  3
JitterOff
350
3F
  3
Linepattern
350
37
  3
OverhangOff
350
40
  3
Realistic
350
33
  3
Shaded
350
3E
  3
Shaded with edges
350
3D
  3
Shades of Gray
350
3A
  3
Sketchy
350
3B
  3
Thicken
350
36
  3
Wireframe
350
30
  3
X-Ray
350
3C
  0
XRECORD
  5
854
102
{ACAD_REACTORS
330
C
102
}
330
C
100
AcDbXrecord
280
     1
 90
        1
330
64
  0
DICTIONARY
  5
806
102
{ACAD_REACTORS
330
C
102
}
330
C
100
AcDbDictionary
281
     1
  3
CANNOSCALE
350
80B
  3
CMLEADERSTYLE
350
808
  3
CTABLESTYLE
350
807
  3
CVIEWDETAILSTYLE
350
809
  3
CVIEWSECTIONSTYLE
350
80A
  3
DIMASSOC
350
80E
  3
INDEXCTL
350
80D
  3
SORTENTS
350
80C
  3
XCLIPFRAME
350
80F
  0
XRECORD
  5
855
102
{ACAD_REACTORS
330
C
102
}
330
C
100
AcDbXrecord
280
     1
  1
DWGPROPS COOKIE
  2

  3

  4

  6

  7

  8
web_pc2
  9

300
=
301
=
302
=
303
=
304
=
305
=
306
=
307
=
308
=
309
=
 40
0.0001041666666667
 41
2458761.594027778
 42
2458761.594131944
  1

 90
        0
  0
XRECORD
  5
7F1
102
{ACAD_REACTORS
330
7F0
102
}
330
7F0
100
AcDbXrecord
280
     1
290
     1
  0
XRECORD
  5
7F3
102
{ACAD_REACTORS
330
7F2
102
}
330
7F2
100
AcDbXrecord
280
     1
290
     1
  0
XRECORD
  5
7F5
102
{ACAD_REACTORS
330
7F4
102
}
330
7F4
100
AcDbXrecord
280
     1
290
     1
  0
XRECORD
  5
7F7
102
{ACAD_REACTORS
330
7F6
102
}
330
7F6
100
AcDbXrecord
280
     1
290
     1
  0
XRECORD
  5
7F9
102
{ACAD_REACTORS
330
7F8
102
}
330
7F8
100
AcDbXrecord
280
     1
290
     1
  0
XRECORD
  5
7FB
102
{ACAD_REACTORS
330
7FA
102
}
330
7FA
100
AcDbXrecord
280
     1
290
     1
  0
XRECORD
  5
7FD
102
{ACAD_REACTORS
330
7FC
102
}
330
7FC
100
AcDbXrecord
280
     1
290
     1
  0
XRECORD
  5
7FF
102
{ACAD_REACTORS
330
7FE
102
}
330
7FE
100
AcDbXrecord
280
     1
290
     1
  0
XRECORD
  5
801
102
{ACAD_REACTORS
330
800
102
}
330
800
100
AcDbXrecord
280
     1
290
     1
  0
XRECORD
  5
803
102
{ACAD_REACTORS
330
802
102
}
330
802
100
AcDbXrecord
280
     1
290
     1
  0
XRECORD
  5
805
102
{ACAD_REACTORS
330
804
102
}
330
804
100
AcDbXrecord
280
     1
290
     1
  0
ACDBDETAILVIEWSTYLE
  5
6A
102
{ACAD_XDICTIONARY
360
88D
102
}
102
{ACAD_REACTORS
330
69
102
}
330
69
100
AcDbModelDocViewStyle
 70
     0
  3
Imperial24
290
     0
100
AcDbDetailViewStyle
 70
     0
 71
     0
 90
        3
 71
     1
340
55
 40
0.24
340
0
 40
0.24
300

 40
0.36
280
     3
 71
     2
340
5C
 90
       25
 71
     3
340
55
 40
0.24
 90
        1
 40
0.75
 90
        1
300
%<\AcVar ViewType \f "%tc1">% %<\AcVar ViewDetailId>%\PSCALE %<\AcVar ViewScale \f "%sn">%
 71
     4
340
5C
 90
       25
340
5C
 90
       25
280
     0
  0
LAYOUT
  5
6E
102
{ACAD_XDICTIONARY
360
88F
102
}
102
{ACAD_REACTORS
330
61
102
}
330
61
100
AcDbPlotSettings
  1

  2
RECEIPT_PDF
  4

  6

 40
0.0
 41
0.0
 42
0.0
 43
0.0
 44
0.0
 45
0.0
 46
0.0
 47
0.0
 48
0.0
 49
0.0
140
0.0
141
0.0
142
1.0
143
1.0
 70
   688
 72
     0
 73
     0
 74
     5
  7

 75
    16
147
1.0
148
0.0
149
0.0
100
AcDbLayout
  1
Layout1
 70
     1
 71
     1
 10
0.0
 20
0.0
 11
12.0
 21
9.0
 12
0.0
 22
0.0
 32
0.0
 14
1.000000000000000E+20
 24
1.000000000000000E+20
 34
1.000000000000000E+20
 15
-1.000000000000000E+20
 25
-1.000000000000000E+20
 35
-1.000000000000000E+20
146
0.0
 13
0.0
 23
0.0
 33
0.0
 16
1.0
 26
0.0
 36
0.0
 17
0.0
 27
1.0
 37
0.0
 76
     0
330
6B
  0
LAYOUT
  5
72
102
{ACAD_XDICTIONARY
360
891
102
}
102
{ACAD_REACTORS
330
61
102
}
330
61
100
AcDbPlotSettings
  1

  2
RECEIPT_PDF
  4

  6

 40
0.0
 41
0.0
 42
0.0
 43
0.0
 44
0.0
 45
0.0
 46
0.0
 47
0.0
 48
0.0
 49
0.0
140
0.0
141
0.0
142
1.0
143
1.0
 70
  1712
 72
     0
 73
     0
 74
     0
  7

 75
     0
147
1.0
148
0.0
149
0.0
100
AcDbLayout
  1
Model
 70
     1
 71
     0
 10
0.0
 20
0.0
 11
12.0
 21
9.0
 12
0.0
 22
0.0
 32
0.0
 14
0.0
 24
0.0
 34
0.0
 15
0.0
 25
0.0
 35
0.0
146
0.0
 13
0.0
 23
0.0
 33
0.0
 16
1.0
 26
0.0
 36
0.0
 17
0.0
 27
1.0
 37
0.0
 76
     0
330
6F
331
7E
  0
MATERIAL
  5
19
102
{ACAD_XDICTIONARY
360
1A
102
}
102
{ACAD_REACTORS
330
10
102
}
330
10
100
AcDbMaterial
  1
ByBlock
 72
     0
 43
0.0208333333333333
 43
0.0
 43
0.0
 43
0.0
 43
0.0
 43
0.0208333333333333
 43
0.0
 43
0.0
 43
0.0
 43
0.0
 43
1.0
 43
0.0
 43
0.0
 43
0.0
 43
0.0
 43
1.0
 77
     0
 47
0.0208333333333333
 47
0.0
 47
0.0
 47
0.0
 47
0.0
 47
0.0208333333333333
 47
0.0
 47
0.0
 47
0.0
 47
0.0
 47
1.0
 47
0.0
 47
0.0
 47
0.0
 47
0.0
 47
1.0
171
     0
 49
0.0208333333333333
 49
0.0
 49
0.0
 49
0.0
 49
0.0
 49
0.0208333333333333
 49
0.0
 49
0.0
 49
0.0
 49
0.0
 49
1.0
 49
0.0
 49
0.0
 49
0.0
 49
0.0
 49
1.0
175
     0
142
0.0208333333333333
142
0.0
142
0.0
142
0.0
142
0.0
142
0.0208333333333333
142
0.0
142
0.0
142
0.0
142
0.0
142
1.0
142
0.0
142
0.0
142
0.0
142
0.0
142
1.0
179
     0
144
0.0208333333333333
144
0.0
144
0.0
144
0.0
144
0.0
144
0.0208333333333333
144
0.0
144
0.0
144
0.0
144
0.0
144
1.0
144
0.0
144
0.0
144
0.0
144
0.0
144
1.0
147
0.0208333333333333
147
0.0
147
0.0
147
0.0
147
0.0
147
0.0208333333333333
147
0.0
147
0.0
147
0.0
147
0.0
147
1.0
147
0.0
147
0.0
147
0.0
147
0.0
147
1.0
  0
MATERIAL
  5
11
102
{ACAD_XDICTIONARY
360
12
102
}
102
{ACAD_REACTORS
330
10
102
}
330
10
100
AcDbMaterial
  1
ByLayer
 72
     0
 43
0.0208333333333333
 43
0.0
 43
0.0
 43
0.0
 43
0.0
 43
0.0208333333333333
 43
0.0
 43
0.0
 43
0.0
 43
0.0
 43
1.0
 43
0.0
 43
0.0
 43
0.0
 43
0.0
 43
1.0
 77
     0
 47
0.0208333333333333
 47
0.0
 47
0.0
 47
0.0
 47
0.0
 47
0.0208333333333333
 47
0.0
 47
0.0
 47
0.0
 47
0.0
 47
1.0
 47
0.0
 47
0.0
 47
0.0
 47
0.0
 47
1.0
171
     0
 49
0.0208333333333333
 49
0.0
 49
0.0
 49
0.0
 49
0.0
 49
0.0208333333333333
 49
0.0
 49
0.0
 49
0.0
 49
0.0
 49
1.0
 49
0.0
 49
0.0
 49
0.0
 49
0.0
 49
1.0
175
     0
142
0.0208333333333333
142
0.0
142
0.0
142
0.0
142
0.0
142
0.0208333333333333
142
0.0
142
0.0
142
0.0
142
0.0
142
1.0
142
0.0
142
0.0
142
0.0
142
0.0
142
1.0
179
     0
144
0.0208333333333333
144
0.0
144
0.0
144
0.0
144
0.0
144
0.0208333333333333
144
0.0
144
0.0
144
0.0
144
0.0
144
1.0
144
0.0
144
0.0
144
0.0
144
0.0
144
1.0
147
0.0208333333333333
147
0.0
147
0.0
147
0.0
147
0.0
147
0.0208333333333333
147
0.0
147
0.0
147
0.0
147
0.0
147
1.0
147
0.0
147
0.0
147
0.0
147
0.0
147
1.0
  0
MATERIAL
  5
21
102
{ACAD_XDICTIONARY
360
22
102
}
102
{ACAD_REACTORS
330
10
102
}
330
10
100
AcDbMaterial
  1
Global
 72
     0
 43
0.0208333333333333
 43
0.0
 43
0.0
 43
0.0
 43
0.0
 43
0.0208333333333333
 43
0.0
 43
0.0
 43
0.0
 43
0.0
 43
1.0
 43
0.0
 43
0.0
 43
0.0
 43
0.0
 43
1.0
 77
     0
 47
0.0208333333333333
 47
0.0
 47
0.0
 47
0.0
 47
0.0
 47
0.0208333333333333
 47
0.0
 47
0.0
 47
0.0
 47
0.0
 47
1.0
 47
0.0
 47
0.0
 47
0.0
 47
0.0
 47
1.0
171
     0
 49
0.0208333333333333
 49
0.0
 49
0.0
 49
0.0
 49
0.0
 49
0.0208333333333333
 49
0.0
 49
0.0
 49
0.0
 49
0.0
 49
1.0
 49
0.0
 49
0.0
 49
0.0
 49
0.0
 49
1.0
175
     0
142
0.0208333333333333
142
0.0
142
0.0
142
0.0
142
0.0
142
0.0208333333333333
142
0.0
142
0.0
142
0.0
142
0.0
142
1.0
142
0.0
142
0.0
142
0.0
142
0.0
142
1.0
179
     0
144
0.0208333333333333
144
0.0
144
0.0
144
0.0
144
0.0
144
0.0208333333333333
144
0.0
144
0.0
144
0.0
144
0.0
144
1.0
144
0.0
144
0.0
144
0.0
144
0.0
144
1.0
147
0.0208333333333333
147
0.0
147
0.0
147
0.0
147
0.0
147
0.0208333333333333
147
0.0
147
0.0
147
0.0
147
0.0
147
1.0
147
0.0
147
0.0
147
0.0
147
0.0
147
1.0
  0
MLEADERSTYLE
  5
66
102
{ACAD_REACTORS
330
65
102
}
330
65
100
AcDbMLeaderStyle
170
     2
171
     1
172
     0
 90
        2
 40
0.0
 41
0.0
173
     1
 91
-1056964608
340
5A
 92
       -2
290
     1
 42
0.09
291
     1
 43
0.36
  3
Standard
 44
0.18
300

342
55
174
     1
178
     6
175
     1
176
     0
 93
-1056964608
 45
0.18
292
     0
297
     0
 46
0.18
 94
-1056964608
 47
1.0
 49
1.0
140
1.0
293
     1
141
0.0
294
     1
177
     0
142
1.0
295
     0
296
     0
143
0.125
1001
ACAD_MLEADERVER
1070
     2
  0
MLINESTYLE
  5
5F
102
{ACAD_REACTORS
330
5E
102
}
330
5E
100
AcDbMlineStyle
  2
STANDARD
 70
     0
  3

 62
   256
 51
90.0
 52
90.0
 71
     2
 49
0.5
 62
   256
  6
BYLAYER
 49
-0.5
 62
   256
  6
BYLAYER
  0
ACDBPLACEHOLDER
  5
F
102
{ACAD_REACTORS
330
E
102
}
330
E
  0
SCALE
  5
43
102
{ACAD_REACTORS
330
42
102
}
330
42
100
AcDbScale
 70
     0
300
1:1
140
1.0
141
1.0
290
     1
  0
SCALE
  5
44
102
{ACAD_REACTORS
330
42
102
}
330
42
100
AcDbScale
 70
     0
300
1/128" = 1'-0"
140
0.0078125
141
12.0
290
     0
  0
SCALE
  5
45
102
{ACAD_REACTORS
330
42
102
}
330
42
100
AcDbScale
 70
     0
300
1/64" = 1'-0"
140
0.015625
141
12.0
290
     0
  0
SCALE
  5
46
102
{ACAD_REACTORS
330
42
102
}
330
42
100
AcDbScale
 70
     0
300
1/32" = 1'-0"
140
0.03125
141
12.0
290
     0
  0
SCALE
  5
47
102
{ACAD_REACTORS
330
42
102
}
330
42
100
AcDbScale
 70
     0
300
1/16" = 1'-0"
140
0.0625
141
12.0
290
     0
  0
SCALE
  5
48
102
{ACAD_REACTORS
330
42
102
}
330
42
100
AcDbScale
 70
     0
300
3/32" = 1'-0"
140
0.09375
141
12.0
290
     0
  0
SCALE
  5
49
102
{ACAD_REACTORS
330
42
102
}
330
42
100
AcDbScale
 70
     0
300
1/8" = 1'-0"
140
0.125
141
12.0
290
     0
  0
SCALE
  5
4A
102
{ACAD_REACTORS
330
42
102
}
330
42
100
AcDbScale
 70
     0
300
3/16" = 1'-0"
140
0.1875
141
12.0
290
     0
  0
SCALE
  5
4B
102
{ACAD_REACTORS
330
42
102
}
330
42
100
AcDbScale
 70
     0
300
1/4" = 1'-0"
140
0.25
141
12.0
290
     0
  0
SCALE
  5
4C
102
{ACAD_REACTORS
330
42
102
}
330
42
100
AcDbScale
 70
     0
300
3/8" = 1'-0"
140
0.375
141
12.0
290
     0
  0
SCALE
  5
4D
102
{ACAD_REACTORS
330
42
102
}
330
42
100
AcDbScale
 70
     0
300
1/2" = 1'-0"
140
0.5
141
12.0
290
     0
  0
SCALE
  5
4E
102
{ACAD_REACTORS
330
42
102
}
330
42
100
AcDbScale
 70
     0
300
3/4" = 1'-0"
140
0.75
141
12.0
290
     0
  0
SCALE
  5
4F
102
{ACAD_REACTORS
330
42
102
}
330
42
100
AcDbScale
 70
     0
300
1" = 1'-0"
140
1.0
141
12.0
290
     0
  0
SCALE
  5
50
102
{ACAD_REACTORS
330
42
102
}
330
42
100
AcDbScale
 70
     0
300
1-1/2" = 1'-0"
140
1.5
141
12.0
290
     0
  0
SCALE
  5
51
102
{ACAD_REACTORS
330
42
102
}
330
42
100
AcDbScale
 70
     0
300
3" = 1'-0"
140
3.0
141
12.0
290
     0
  0
SCALE
  5
52
102
{ACAD_REACTORS
330
42
102
}
330
42
100
AcDbScale
 70
     0
300
6" = 1'-0"
140
6.0
141
12.0
290
     0
  0
SCALE
  5
53
102
{ACAD_REACTORS
330
42
102
}
330
42
100
AcDbScale
 70
     0
300
1'-0" = 1'-0"
140
12.0
141
12.0
290
     0
  0
ACDBSECTIONVIEWSTYLE
  5
68
102
{ACAD_XDICTIONARY
360
88B
102
}
102
{ACAD_REACTORS
330
67
102
}
330
67
100
AcDbModelDocViewStyle
 70
     0
  3
Imperial24
290
     0
100
AcDbSectionViewStyle
 70
     0
 71
     0
 90
       78
 71
     1
340
55
 40
0.24
340
0
340
0
 40
0.24
300
I, O, Q, S, X, Z
 40
0.48
 90
        3
 40
0.18
 90
        1
 71
     2
340
5C
 90
       25
340
5C
 90
       50
 40
0.24
 40
0.0
 40
0.24
 71
     3
340
55
 40
0.24
 90
        1
 40
0.75
 90
        1
300
%<\AcVar ViewType \f "%tc1">% %<\AcVar ViewSectionStartId>%-%<\AcVar ViewSectionEndId>%\PSCALE %<\AcVar ViewScale \f "%sn">%
 71
     4
300
ANSI31
 40
1.0
 90
        0
290
     0
290
     0
 90
        6
 40
0.0
 40
1.570796326794896
 40
0.2617993877991494
 40
1.308996938995747
 40
-0.2617993877991494
 40
1.832595714594046
  0
TABLESTYLE
  5
64
102
{ACAD_XDICTIONARY
360
852
102
}
102
{ACAD_REACTORS
330
63
102
}
330
63
100
AcDbTableStyle
  3
Standard
 70
     0
 71
     0
 40
0.06
 41
0.06
280
     0
281
     0
  7
Standard
140
0.18
170
     2
 62
     0
 63
     7
283
     0
274
    -2
284
     1
 64
     0
275
    -2
285
     1
 65
     0
276
    -2
286
     1
 66
     0
277
    -2
287
     1
 67
     0
278
    -2
288
     1
 68
     0
279
    -2
289
     1
 69
     0
  7
Standard
140
0.25
170
     5
 62
     0
 63
     7
283
     0
274
    -2
284
     1
 64
     0
275
    -2
285
     1
 65
     0
276
    -2
286
     1
 66
     0
277
    -2
287
     1
 67
     0
278
    -2
288
     1
 68
     0
279
    -2
289
     1
 69
     0
  7
Standard
140
0.18
170
     5
 62
     0
 63
     7
283
     0
274
    -2
284
     1
 64
     0
275
    -2
285
     1
 65
     0
276
    -2
286
     1
 66
     0
277
    -2
287
     1
 67
     0
278
    -2
288
     1
 68
     0
279
    -2
289
     1
 69
     0
  0
VISUALSTYLE
  5
2F
102
{ACAD_XDICTIONARY
360
863
102
}
102
{ACAD_REACTORS
330
29
102
}
330
29
100
AcDbVisualStyle
  2
2dWireframe
 70
     4
 71
     0
 72
     2
 73
     0
 90
        0
 40
-0.6
 41
-30.0
 62
     5
 63
     7
 74
     1
 91
        4
 64
     7
 65
   257
 75
     1
175
     1
 42
1.0
 92
        0
 66
   257
 43
1.0
 76
     1
 77
     6
 78
     2
 67
     7
 79
     5
170
     0
171
     0
290
     0
174
     0
 93
        1
 44
0.0
173
     0
291
     0
 45
0.0
1001
ACAD
1000
AcDbSavedByObjectVersion
1070
     0
  0
VISUALSTYLE
  5
2E
102
{ACAD_XDICTIONARY
360
861
102
}
102
{ACAD_REACTORS
330
29
102
}
330
29
100
AcDbVisualStyle
  2
Basic
 70
     7
 71
     1
 72
     0
 73
     1
 90
        0
 40
-0.6
 41
-30.0
 62
     5
 63
     7
 74
     0
 91
        4
 64
     7
 65
   257
 75
     1
175
     1
 42
1.0
 92
        8
 66
     7
 43
1.0
 76
     1
 77
     6
 78
     2
 67
     7
 79
     5
170
     0
171
     0
290
     0
174
     0
 93
        1
 44
0.0
173
     0
291
     1
 45
0.0
1001
ACAD
1000
AcDbSavedByObjectVersion
1070
     0
  0
VISUALSTYLE
  5
35
102
{ACAD_XDICTIONARY
360
86F
102
}
102
{ACAD_REACTORS
330
29
102
}
330
29
100
AcDbVisualStyle
  2
Brighten
 70
    12
 71
     2
 72
     2
 73
     0
 90
        0
 40
-0.6
 41
-30.0
 62
     5
 63
     7
 74
     1
 91
        4
 64
     7
 65
   257
 75
     1
175
     1
 42
1.0
 92
        8
 66
     7
 43
1.0
 76
     1
 77
     6
 78
     2
 67
     7
 79
     5
170
     0
171
     0
290
     0
174
     0
 93
        1
 44
50.0
173
     0
291
     1
 45
0.0
1001
ACAD
1000
AcDbSavedByObjectVersion
1070
     0
  0
VISUALSTYLE
  5
39
102
{ACAD_XDICTIONARY
360
877
102
}
102
{ACAD_REACTORS
330
29
102
}
330
29
100
AcDbVisualStyle
  2
ColorChange
 70
    16
 71
     2
 72
     2
 73
     3
 90
        0
 40
-0.6
 41
-30.0
 62
     5
 63
     8
 74
     1
 91
        4
 64
     7
 65
   257
 75
     1
175
     1
 42
1.0
 92
        8
 66
     8
 43
1.0
 76
     1
 77
     6
 78
     2
 67
     7
 79
     5
170
     0
171
     0
290
     0
174
     0
 93
        1
 44
0.0
173
     0
291
     1
 45
0.0
1001
ACAD
1000
AcDbSavedByObjectVersion
1070
     0
  0
VISUALSTYLE
  5
32
102
{ACAD_XDICTIONARY
360
869
102
}
102
{ACAD_REACTORS
330
29
102
}
330
29
100
AcDbVisualStyle
  2
Conceptual
 70
     9
 71
     3
 72
     2
 73
     0
 90
        0
 40
-0.6
 41
-30.0
 62
     5
 63
     7
 74
     2
 91
        2
 64
     7
 65
   257
 75
     1
175
     1
 42
179.0
 92
        8
 66
     7
 43
1.0
 76
     1
 77
     6
 78
     2
 67
     7
 79
     3
170
     0
171
     0
290
     0
174
     0
 93
        1
 44
0.0
173
     0
291
     0
 45
0.0
1001
ACAD
1000
AcDbSavedByObjectVersion
1070
     0
  0
VISUALSTYLE
  5
34
102
{ACAD_XDICTIONARY
360
86D
102
}
102
{ACAD_REACTORS
330
29
102
}
330
29
100
AcDbVisualStyle
  2
Dim
 70
    11
 71
     2
 72
     2
 73
     0
 90
        0
 40
-0.6
 41
-30.0
 62
     5
 63
     7
 74
     1
 91
        4
 64
     7
 65
   257
 75
     1
175
     1
 42
1.0
 92
        8
 66
     7
 43
1.0
 76
     1
 77
     6
 78
     2
 67
     7
 79
     5
170
     0
171
     0
290
     0
174
     0
 93
        1
 44
-50.0
173
     0
291
     1
 45
0.0
1001
ACAD
1000
AcDbSavedByObjectVersion
1070
     0
  0
VISUALSTYLE
  5
41
102
{ACAD_XDICTIONARY
360
887
102
}
102
{ACAD_REACTORS
330
29
102
}
330
29
100
AcDbVisualStyle
  2
EdgeColorOff
 70
    22
 71
     2
 72
     2
 73
     0
 90
        0
 40
-0.6
 41
-30.0
 62
     5
 63
     7
 74
     1
 91
        4
 64
     7
 65
   257
 75
     1
175
     1
 42
1.0
 92
        8
 66
     7
 43
1.0
 76
     1
 77
     6
 78
     2
 67
     7
 79
     5
170
     0
171
     0
290
     0
174
     0
 93
        1
 44
0.0
173
     0
291
     1
 45
0.0
1001
ACAD
1000
AcDbSavedByObjectVersion
1070
     0
  0
VISUALSTYLE
  5
38
102
{ACAD_XDICTIONARY
360
875
102
}
102
{ACAD_REACTORS
330
29
102
}
330
29
100
AcDbVisualStyle
  2
Facepattern
 70
    15
 71
     2
 72
     2
 73
     0
 90
        0
 40
-0.6
 41
-30.0
 62
     5
 63
     7
 74
     1
 91
        4
 64
     7
 65
   257
 75
     1
175
     1
 42
1.0
 92
        8
 66
     7
 43
1.0
 76
     1
 77
     6
 78
     2
 67
     7
 79
     5
170
     0
171
     0
290
     0
174
     0
 93
        1
 44
0.0
173
     0
291
     1
 45
0.0
1001
ACAD
1000
AcDbSavedByObjectVersion
1070
     0
  0
VISUALSTYLE
  5
2A
102
{ACAD_XDICTIONARY
360
859
102
}
102
{ACAD_REACTORS
330
29
102
}
330
29
100
AcDbVisualStyle
  2
Flat
 70
     0
 71
     2
 72
     1
 73
     1
 90
        2
 40
-0.6
 41
30.0
 62
     5
 63
     7
 74
     0
 91
        0
 64
     7
 65
   257
 75
     1
175
     1
 42
1.0
 92
        8
 66
     7
 43
1.0
 76
     1
 77
     6
 78
     2
 67
     7
 79
     5
170
     0
171
     0
290
     0
174
     0
 93
       13
 44
0.0
173
     0
291
     1
 45
0.0
1001
ACAD
1000
AcDbSavedByObjectVersion
1070
     0
  0
VISUALSTYLE
  5
2B
102
{ACAD_XDICTIONARY
360
85B
102
}
102
{ACAD_REACTORS
330
29
102
}
330
29
100
AcDbVisualStyle
  2
FlatWithEdges
 70
     1
 71
     2
 72
     1
 73
     1
 90
        2
 40
-0.6
 41
30.0
 62
     5
 63
     7
 74
     1
 91
        0
 64
     7
 65
   257
 75
     1
175
     1
 42
1.0
 92
        0
 66
   257
 43
1.0
 76
     1
 77
     6
 78
     2
 67
     7
 79
     5
170
     0
171
     0
290
     0
174
     0
 93
       13
 44
0.0
173
     0
291
     1
 45
0.0
1001
ACAD
1000
AcDbSavedByObjectVersion
1070
     0
  0
VISUALSTYLE
  5
2C
102
{ACAD_XDICTIONARY
360
85D
102
}
102
{ACAD_REACTORS
330
29
102
}
330
29
100
AcDbVisualStyle
  2
Gouraud
 70
     2
 71
     2
 72
     2
 73
     1
 90
        2
 40
-0.6
 41
30.0
 62
     5
 63
     7
 74
     0
 91
        0
 64
     7
 65
   257
 75
     1
175
     1
 42
1.0
 92
        0
 66
     7
 43
1.0
 76
     1
 77
     6
 78
     2
 67
     7
 79
     5
170
     0
171
     0
290
     0
174
     0
 93
       13
 44
0.0
173
     0
291
     1
 45
0.0
1001
ACAD
1000
AcDbSavedByObjectVersion
1070
     0
  0
VISUALSTYLE
  5
2D
102
{ACAD_XDICTIONARY
360
85F
102
}
102
{ACAD_REACTORS
330
29
102
}
330
29
100
AcDbVisualStyle
  2
GouraudWithEdges
 70
     3
 71
     2
 72
     2
 73
     1
 90
        2
 40
-0.6
 41
30.0
 62
     5
 63
     7
 74
     1
 91
        0
 64
     7
 65
   257
 75
     1
175
     1
 42
1.0
 92
        0
 66
   257
 43
1.0
 76
     1
 77
     6
 78
     2
 67
     7
 79
     5
170
     0
171
     0
290
     0
174
     0
 93
       13
 44
0.0
173
     0
291
     1
 45
0.0
1001
ACAD
1000
AcDbSavedByObjectVersion
1070
     0
  0
VISUALSTYLE
  5
31
102
{ACAD_XDICTIONARY
360
867
102
}
102
{ACAD_REACTORS
330
29
102
}
330
29
100
AcDbVisualStyle
  2
Hidden
 70
     6
 71
     1
 72
     2
 73
     2
 90
        0
 40
-0.6
 41
-30.0
 62
     5
 63
     7
 74
     2
 91
        2
 64
     7
 65
   257
 75
     2
175
     1
 42
40.0
 92
        0
 66
   257
 43
1.0
 76
     1
 77
     6
 78
     2
 67
     7
 79
     3
170
     0
171
     0
290
     0
174
     0
 93
        1
 44
0.0
173
     0
291
     0
 45
0.0
1001
ACAD
1000
AcDbSavedByObjectVersion
1070
     0
  0
VISUALSTYLE
  5
3F
102
{ACAD_XDICTIONARY
360
883
102
}
102
{ACAD_REACTORS
330
29
102
}
330
29
100
AcDbVisualStyle
  2
JitterOff
 70
    20
 71
     2
 72
     2
 73
     0
 90
        0
 40
-0.6
 41
-30.0
 62
     5
 63
     7
 74
     1
 91
        4
 64
     7
 65
   257
 75
     1
175
     1
 42
1.0
 92
       10
 66
     7
 43
1.0
 76
     1
 77
     6
 78
     2
 67
     7
 79
     5
170
     0
171
     0
290
     0
174
     0
 93
        1
 44
0.0
173
     0
291
     1
 45
0.0
1001
ACAD
1000
AcDbSavedByObjectVersion
1070
     0
  0
VISUALSTYLE
  5
37
102
{ACAD_XDICTIONARY
360
873
102
}
102
{ACAD_REACTORS
330
29
102
}
330
29
100
AcDbVisualStyle
  2
Linepattern
 70
    14
 71
     2
 72
     2
 73
     0
 90
        0
 40
-0.6
 41
-30.0
 62
     5
 63
     7
 74
     1
 91
        4
 64
     7
 65
   257
 75
     7
175
     7
 42
1.0
 92
        8
 66
     7
 43
1.0
 76
     1
 77
     6
 78
     2
 67
     7
 79
     5
170
     0
171
     0
290
     0
174
     0
 93
        1
 44
0.0
173
     0
291
     1
 45
0.0
1001
ACAD
1000
AcDbSavedByObjectVersion
1070
     0
  0
VISUALSTYLE
  5
40
102
{ACAD_XDICTIONARY
360
885
102
}
102
{ACAD_REACTORS
330
29
102
}
330
29
100
AcDbVisualStyle
  2
OverhangOff
 70
    21
 71
     2
 72
     2
 73
     0
 90
        0
 40
-0.6
 41
-30.0
 62
     5
 63
     7
 74
     1
 91
        4
 64
     7
 65
   257
 75
     1
175
     1
 42
1.0
 92
        9
 66
     7
 43
1.0
 76
     1
 77
     6
 78
     2
 67
     7
 79
     5
170
     0
171
     0
290
     0
174
     0
 93
        1
 44
0.0
173
     0
291
     1
 45
0.0
1001
ACAD
1000
AcDbSavedByObjectVersion
1070
     0
  0
VISUALSTYLE
  5
33
102
{ACAD_XDICTIONARY
360
86B
102
}
102
{ACAD_REACTORS
330
29
102
}
330
29
100
AcDbVisualStyle
  2
Realistic
 70
     8
 71
     2
 72
     3
 73
     0
 90
        2
 40
-0.6
 41
30.0
 62
     5
 63
     7
 74
     0
 91
        0
 64
     7
 65
   257
 75
     1
175
     1
 42
1.0
 92
        8
 66
   257
 43
1.0
 76
     1
 77
     6
 78
     2
 67
     7
 79
     3
170
     0
171
     0
290
     0
174
     0
 93
       13
 44
0.0
173
     0
291
     0
 45
0.0
1001
ACAD
1000
AcDbSavedByObjectVersion
1070
     0
  0
VISUALSTYLE
  5
3E
102
{ACAD_XDICTIONARY
360
881
102
}
102
{ACAD_REACTORS
330
29
102
}
330
29
100
AcDbVisualStyle
  2
Shaded
 70
    27
 71
     2
 72
     2
 73
     1
 90
        2
 40
-0.6
 41
30.0
 62
     5
 63
     7
 74
     0
 91
        4
 64
     7
 65
   257
 75
     1
175
     1
 42
1.0
 92
        8
 66
   257
 43
1.0
 76
     1
 77
     6
 78
     2
 67
     8
 79
     3
170
     0
171
     0
290
     0
174
     0
 93
        5
 44
0.0
173
     0
291
     0
 45
0.0
1001
ACAD
1000
AcDbSavedByObjectVersion
1070
     0
  0
VISUALSTYLE
  5
3D
102
{ACAD_XDICTIONARY
360
87F
102
}
102
{ACAD_REACTORS
330
29
102
}
330
29
100
AcDbVisualStyle
  2
Shaded with edges
 70
    26
 71
     2
 72
     2
 73
     1
 90
        2
 40
-0.6
 41
30.0
 62
     5
 63
     7
 74
     1
 91
        2
 64
     7
 65
   257
 75
     2
175
     1
 42
1.0
 92
        8
 66
   257
 43
1.0
 76
     1
 77
     6
 78
     2
 67
     7
 79
     3
170
     0
171
     0
290
     0
174
     0
 93
        5
 44
0.0
173
     0
291
     0
 45
0.0
1001
ACAD
1000
AcDbSavedByObjectVersion
1070
     0
  0
VISUALSTYLE
  5
3A
102
{ACAD_XDICTIONARY
360
879
102
}
102
{ACAD_REACTORS
330
29
102
}
330
29
100
AcDbVisualStyle
  2
Shades of Gray
 70
    23
 71
     2
 72
     2
 73
     3
 90
        0
 40
-0.6
 41
-30.0
 62
     5
 63
     7
 74
     2
 91
        2
 64
     7
 65
     7
 75
     1
175
     1
 42
40.0
 92
        8
 66
     7
 43
1.0
 76
     1
 77
     6
 78
     2
 67
     7
 79
     3
170
     0
171
     0
290
     0
174
     0
 93
        1
 44
0.0
173
     0
291
     0
 45
0.0
1001
ACAD
1000
AcDbSavedByObjectVersion
1070
     0
  0
VISUALSTYLE
  5
3B
102
{ACAD_XDICTIONARY
360
87B
102
}
102
{ACAD_REACTORS
330
29
102
}
330
29
100
AcDbVisualStyle
  2
Sketchy
 70
    24
 71
     1
 72
     2
 73
     2
 90
        0
 40
-0.6
 41
-30.0
 62
     5
 63
     7
 74
     2
 91
        2
 64
     7
 65
     7
 75
     1
175
     1
 42
40.0
 92
       11
 66
     7
 43
1.0
 76
     1
 77
     6
 78
     2
 67
     7
 79
     6
170
     0
171
     0
290
     0
174
     0
 93
        1
 44
0.0
173
     0
291
     0
 45
0.0
1001
ACAD
1000
AcDbSavedByObjectVersion
1070
     0
  0
VISUALSTYLE
  5
36
102
{ACAD_XDICTIONARY
360
871
102
}
102
{ACAD_REACTORS
330
29
102
}
330
29
100
AcDbVisualStyle
  2
Thicken
 70
    13
 71
     2
 72
     2
 73
     0
 90
        0
 40
-0.6
 41
-30.0
 62
     5
 63
     7
 74
     1
 91
        4
 64
     7
 65
   257
 75
     1
175
     1
 42
1.0
 92
       12
 66
     7
 43
1.0
 76
     1
 77
     6
 78
     2
 67
     7
 79
     5
170
     0
171
     0
290
     0
174
     0
 93
        1
 44
0.0
173
     0
291
     1
 45
0.0
1001
ACAD
1000
AcDbSavedByObjectVersion
1070
     0
  0
VISUALSTYLE
  5
30
102
{ACAD_XDICTIONARY
360
865
102
}
102
{ACAD_REACTORS
330
29
102
}
330
29
100
AcDbVisualStyle
  2
Wireframe
 70
     5
 71
     0
 72
     2
 73
     0
 90
        0
 40
-0.6
 41
-30.0
 62
     5
 63
     7
 74
     1
 91
        4
 64
     7
 65
   257
 75
     1
175
     1
 42
1.0
 92
        0
 66
   257
 43
1.0
 76
     1
 77
     6
 78
     2
 67
     7
 79
     3
170
     0
171
     0
290
     0
174
     0
 93
        1
 44
0.0
173
     0
291
     0
 45
0.0
1001
ACAD
1000
AcDbSavedByObjectVersion
1070
     0
  0
VISUALSTYLE
  5
3C
102
{ACAD_XDICTIONARY
360
87D
102
}
102
{ACAD_REACTORS
330
29
102
}
330
29
100
AcDbVisualStyle
  2
X-Ray
 70
    25
 71
     2
 72
     2
 73
     1
 90
        1
 40
0.5
 41
-30.0
 62
     5
 63
     7
 74
     1
 91
        0
 64
     7
 65
   257
 75
     1
175
     1
 42
1.0
 92
        8
 66
     7
 43
1.0
 76
     1
 77
     6
 78
     2
 67
     7
 79
     3
170
     0
171
     0
290
     0
174
     0
 93
       13
 44
0.0
173
     0
291
     0
 45
0.0
1001
ACAD
1000
AcDbSavedByObjectVersion
1070
     0
  0
DICTIONARYVAR
  5
80B
102
{ACAD_REACTORS
330
806
102
}
330
806
100
DictionaryVariables
280
     0
  1
1:1
  0
DICTIONARYVAR
  5
808
102
{ACAD_REACTORS
330
806
102
}
330
806
100
DictionaryVariables
280
     0
  1
STANDARD
  0
DICTIONARYVAR
  5
807
102
{ACAD_REACTORS
330
806
102
}
330
806
100
DictionaryVariables
280
     0
  1
STANDARD
  0
DICTIONARYVAR
  5
809
102
{ACAD_REACTORS
330
806
102
}
330
806
100
DictionaryVariables
280
     0
  1
Imperial24
  0
DICTIONARYVAR
  5
80A
102
{ACAD_REACTORS
330
806
102
}
330
806
100
DictionaryVariables
280
     0
  1
Imperial24
  0
DICTIONARYVAR
  5
80E
102
{ACAD_REACTORS
330
806
102
}
330
806
100
DictionaryVariables
280
     0
  1
1
  0
DICTIONARYVAR
  5
80D
102
{ACAD_REACTORS
330
806
102
}
330
806
100
DictionaryVariables
280
     0
  1
0
  0
DICTIONARYVAR
  5
80C
102
{ACAD_REACTORS
330
806
102
}
330
806
100
DictionaryVariables
280
     0
  1
127
  0
DICTIONARYVAR
  5
80F
102
{ACAD_REACTORS
330
806
102
}
330
806
100
DictionaryVariables
280
     0
  1
2
  0
DICTIONARY
  5
88D
330
6A
100
AcDbDictionary
280
     1
281
     1
  3
ACAD_XREC_ROUNDTRIP
360
88E
  0
DICTIONARY
  5
88F
330
6E
100
AcDbDictionary
280
     1
281
     1
  3
ACAD_XREC_ROUNDTRIP
360
890
  0
DICTIONARY
  5
891
330
72
100
AcDbDictionary
280
     1
281
     1
  3
ACAD_XREC_ROUNDTRIP
360
892
  0
DICTIONARY
  5
1A
330
19
100
AcDbDictionary
280
     1
281
     1
  3
ACAD_XREC_ROUNDTRIP
360
857
  3
BUMPTILE
360
1C
  3
DIFFUSETILE
360
1B
  3
OPACITYTILE
360
1F
  3
REFLECTIONTILE
360
1E
  3
REFRACTIONTILE
360
20
  3
SPECULARTILE
360
1D
  0
DICTIONARY
  5
12
330
11
100
AcDbDictionary
280
     1
281
     1
  3
ACAD_XREC_ROUNDTRIP
360
856
  3
BUMPTILE
360
14
  3
DIFFUSETILE
360
13
  3
OPACITYTILE
360
17
  3
REFLECTIONTILE
360
16
  3
REFRACTIONTILE
360
18
  3
SPECULARTILE
360
15
  0
DICTIONARY
  5
22
330
21
100
AcDbDictionary
280
     1
281
     1
  3
ACAD_XREC_ROUNDTRIP
360
858
  3
BUMPTILE
360
24
  3
DIFFUSETILE
360
23
  3
OPACITYTILE
360
27
  3
REFLECTIONTILE
360
26
  3
REFRACTIONTILE
360
28
  3
SPECULARTILE
360
25
  0
DICTIONARY
  5
88B
330
68
100
AcDbDictionary
280
     1
281
     1
  3
ACAD_XREC_ROUNDTRIP
360
88C
  0
DICTIONARY
  5
852
330
64
100
AcDbDictionary
280
     1
281
     1
  3
ACAD_ROUNDTRIP_2008_TABLESTYLE_CELLSTYLEMAP
360
853
  3
ACAD_XREC_ROUNDTRIP
360
889
  0
DICTIONARY
  5
863
330
2F
100
AcDbDictionary
280
     1
281
     1
  3
ACAD_XREC_ROUNDTRIP
360
864
  0
DICTIONARY
  5
861
330
2E
100
AcDbDictionary
280
     1
281
     1
  3
ACAD_XREC_ROUNDTRIP
360
862
  0
DICTIONARY
  5
86F
330
35
100
AcDbDictionary
280
     1
281
     1
  3
ACAD_XREC_ROUNDTRIP
360
870
  0
DICTIONARY
  5
877
330
39
100
AcDbDictionary
280
     1
281
     1
  3
ACAD_XREC_ROUNDTRIP
360
878
  0
DICTIONARY
  5
869
330
32
100
AcDbDictionary
280
     1
281
     1
  3
ACAD_XREC_ROUNDTRIP
360
86A
  0
DICTIONARY
  5
86D
330
34
100
AcDbDictionary
280
     1
281
     1
  3
ACAD_XREC_ROUNDTRIP
360
86E
  0
DICTIONARY
  5
887
330
41
100
AcDbDictionary
280
     1
281
     1
  3
ACAD_XREC_ROUNDTRIP
360
888
  0
DICTIONARY
  5
875
330
38
100
AcDbDictionary
280
     1
281
     1
  3
ACAD_XREC_ROUNDTRIP
360
876
  0
DICTIONARY
  5
859
330
2A
100
AcDbDictionary
280
     1
281
     1
  3
ACAD_XREC_ROUNDTRIP
360
85A
  0
DICTIONARY
  5
85B
330
2B
100
AcDbDictionary
280
     1
281
     1
  3
ACAD_XREC_ROUNDTRIP
360
85C
  0
DICTIONARY
  5
85D
330
2C
100
AcDbDictionary
280
     1
281
     1
  3
ACAD_XREC_ROUNDTRIP
360
85E
  0
DICTIONARY
  5
85F
330
2D
100
AcDbDictionary
280
     1
281
     1
  3
ACAD_XREC_ROUNDTRIP
360
860
  0
DICTIONARY
  5
867
330
31
100
AcDbDictionary
280
     1
281
     1
  3
ACAD_XREC_ROUNDTRIP
360
868
  0
DICTIONARY
  5
883
330
3F
100
AcDbDictionary
280
     1
281
     1
  3
ACAD_XREC_ROUNDTRIP
360
884
  0
DICTIONARY
  5
873
330
37
100
AcDbDictionary
280
     1
281
     1
  3
ACAD_XREC_ROUNDTRIP
360
874
  0
DICTIONARY
  5
885
330
40
100
AcDbDictionary
280
     1
281
     1
  3
ACAD_XREC_ROUNDTRIP
360
886
  0
DICTIONARY
  5
86B
330
33
100
AcDbDictionary
280
     1
281
     1
  3
ACAD_XREC_ROUNDTRIP
360
86C
  0
DICTIONARY
  5
881
330
3E
100
AcDbDictionary
280
     1
281
     1
  3
ACAD_XREC_ROUNDTRIP
360
882
  0
DICTIONARY
  5
87F
330
3D
100
AcDbDictionary
280
     1
281
     1
  3
ACAD_XREC_ROUNDTRIP
360
880
  0
DICTIONARY
  5
879
330
3A
100
AcDbDictionary
280
     1
281
     1
  3
ACAD_XREC_ROUNDTRIP
360
87A
  0
DICTIONARY
  5
87B
330
3B
100
AcDbDictionary
280
     1
281
     1
  3
ACAD_XREC_ROUNDTRIP
360
87C
  0
DICTIONARY
  5
871
330
36
100
AcDbDictionary
280
     1
281
     1
  3
ACAD_XREC_ROUNDTRIP
360
872
  0
DICTIONARY
  5
865
330
30
100
AcDbDictionary
280
     1
281
     1
  3
ACAD_XREC_ROUNDTRIP
360
866
  0
DICTIONARY
  5
87D
330
3C
100
AcDbDictionary
280
     1
281
     1
  3
ACAD_XREC_ROUNDTRIP
360
87E
  0
XRECORD
  5
88E
102
{ACAD_REACTORS
330
88D
102
}
330
88D
100
AcDbXrecord
280
     1
102
DISPLAYNAME
  1
Imperial24
102
FLAGS
 90
        0
  0
XRECORD
  5
890
102
{ACAD_REACTORS
330
88F
102
}
330
88F
100
AcDbXrecord
280
     1
102
SHADEPLOT
 70
     0
102
SHADEPLOTRESLEVEL
 70
     2
102
SHADEPLOTCUSTOMDPI
 70
   300
  0
XRECORD
  5
892
102
{ACAD_REACTORS
330
891
102
}
330
891
100
AcDbXrecord
280
     1
102
SHADEPLOT
 70
     0
102
SHADEPLOTRESLEVEL
 70
     2
102
SHADEPLOTCUSTOMDPI
 70
   300
  0
XRECORD
  5
857
102
{ACAD_REACTORS
330
1A
102
}
330
1A
100
AcDbXrecord
280
     1
102
MATERIAL
148
0.0
149
0.0
149
0.0
 93
        0
 94
      127
282
     0
 72
     0
 77
     0
171
     0
175
     0
179
     0
273
     0
  0
XRECORD
  5
1C
102
{ACAD_REACTORS
330
1A
102
}
330
1A
100
AcDbXrecord
280
     1
270
     1
271
     1
  0
XRECORD
  5
1B
102
{ACAD_REACTORS
330
1A
102
}
330
1A
100
AcDbXrecord
280
     1
270
     1
271
     1
  0
XRECORD
  5
1F
102
{ACAD_REACTORS
330
1A
102
}
330
1A
100
AcDbXrecord
280
     1
270
     1
271
     1
  0
XRECORD
  5
1E
102
{ACAD_REACTORS
330
1A
102
}
330
1A
100
AcDbXrecord
280
     1
270
     1
271
     1
  0
XRECORD
  5
20
102
{ACAD_REACTORS
330
1A
102
}
330
1A
100
AcDbXrecord
280
     1
270
     1
271
     1
  0
XRECORD
  5
1D
102
{ACAD_REACTORS
330
1A
102
}
330
1A
100
AcDbXrecord
280
     1
270
     1
271
     1
  0
XRECORD
  5
856
102
{ACAD_REACTORS
330
12
102
}
330
12
100
AcDbXrecord
280
     1
102
MATERIAL
148
0.0
149
0.0
149
0.0
 93
        0
 94
      127
282
     0
 72
     0
 77
     0
171
     0
175
     0
179
     0
273
     0
  0
XRECORD
  5
14
102
{ACAD_REACTORS
330
12
102
}
330
12
100
AcDbXrecord
280
     1
270
     1
271
     1
  0
XRECORD
  5
13
102
{ACAD_REACTORS
330
12
102
}
330
12
100
AcDbXrecord
280
     1
270
     1
271
     1
  0
XRECORD
  5
17
102
{ACAD_REACTORS
330
12
102
}
330
12
100
AcDbXrecord
280
     1
270
     1
271
     1
  0
XRECORD
  5
16
102
{ACAD_REACTORS
330
12
102
}
330
12
100
AcDbXrecord
280
     1
270
     1
271
     1
  0
XRECORD
  5
18
102
{ACAD_REACTORS
330
12
102
}
330
12
100
AcDbXrecord
280
     1
270
     1
271
     1
  0
XRECORD
  5
15
102
{ACAD_REACTORS
330
12
102
}
330
12
100
AcDbXrecord
280
     1
270
     1
271
     1
  0
XRECORD
  5
858
102
{ACAD_REACTORS
330
22
102
}
330
22
100
AcDbXrecord
280
     1
102
MATERIAL
148
0.0
149
0.0
149
0.0
 93
        0
 94
      127
282
     0
 72
     0
 77
     0
171
     0
175
     0
179
     0
273
     0
  0
XRECORD
  5
24
102
{ACAD_REACTORS
330
22
102
}
330
22
100
AcDbXrecord
280
     1
270
     1
271
     1
  0
XRECORD
  5
23
102
{ACAD_REACTORS
330
22
102
}
330
22
100
AcDbXrecord
280
     1
270
     1
271
     1
  0
XRECORD
  5
27
102
{ACAD_REACTORS
330
22
102
}
330
22
100
AcDbXrecord
280
     1
270
     1
271
     1
  0
XRECORD
  5
26
102
{ACAD_REACTORS
330
22
102
}
330
22
100
AcDbXrecord
280
     1
270
     1
271
     1
  0
XRECORD
  5
28
102
{ACAD_REACTORS
330
22
102
}
330
22
100
AcDbXrecord
280
     1
270
     1
271
     1
  0
XRECORD
  5
25
102
{ACAD_REACTORS
330
22
102
}
330
22
100
AcDbXrecord
280
     1
270
     1
271
     1
  0
XRECORD
  5
88C
102
{ACAD_REACTORS
330
88B
102
}
330
88B
100
AcDbXrecord
280
     1
102
DISPLAYNAME
  1
Imperial24
102
FLAGS
 90
        0
  0
CELLSTYLEMAP
  5
853
102
{ACAD_REACTORS
330
852
102
}
330
852
100
AcDbCellStyleMap
 90
        3
300
CELLSTYLE
  1
TABLEFORMAT_BEGIN
 90
        5
170
     1
 91
        0
 92
    32768
 62
   257
 93
        1
300
CONTENTFORMAT
  1
CONTENTFORMAT_BEGIN
 90
        0
 91
        0
 92
      512
 93
        0
300

 40
0.0
140
1.0
 94
        5
 62
     0
340
55
144
0.25
309
CONTENTFORMAT_END
171
     0
 94
        0
309
TABLEFORMAT_END
  1
CELLSTYLE_BEGIN
 90
        1
 91
        1
300
_TITLE
309
CELLSTYLE_END
300
CELLSTYLE
  1
TABLEFORMAT_BEGIN
 90
        5
170
     1
 91
        0
 92
        0
 62
   257
 93
        1
300
CONTENTFORMAT
  1
CONTENTFORMAT_BEGIN
 90
        0
 91
        0
 92
      512
 93
        0
300

 40
0.0
140
1.0
 94
        5
 62
     0
340
55
144
0.18
309
CONTENTFORMAT_END
171
     0
 94
        0
309
TABLEFORMAT_END
  1
CELLSTYLE_BEGIN
 90
        2
 91
        1
300
_HEADER
309
CELLSTYLE_END
300
CELLSTYLE
  1
TABLEFORMAT_BEGIN
 90
        5
170
     1
 91
        0
 92
        0
 62
   257
 93
        1
300
CONTENTFORMAT
  1
CONTENTFORMAT_BEGIN
 90
        0
 91
        0
 92
      512
 93
        0
300

 40
0.0
140
1.0
 94
        2
 62
     0
340
55
144
0.18
309
CONTENTFORMAT_END
171
     0
 94
        0
309
TABLEFORMAT_END
  1
CELLSTYLE_BEGIN
 90
        3
 91
        2
300
_DATA
309
CELLSTYLE_END
  0
XRECORD
  5
889
102
{ACAD_REACTORS
330
852
102
}
330
852
100
AcDbXrecord
280
     1
102
ACAD_ROUNDTRIP_PRE2007_TABLESTYLE
 90
      512
 91
        0
  1

 92
      512
 93
        0
  2

 94
      512
 95
        0
  3

  0
XRECORD
  5
864
102
{ACAD_REACTORS
330
863
102
}
330
863
100
AcDbXrecord
280
     1
102
RTVSPost2010Prop28
280
     1
102
RTVSPost2010PropOp28
 70
     1
102
RTVSPost2010Prop29
280
     1
102
RTVSPost2010PropOp29
 70
     1
102
RTVSPost2010Prop30
280
     0
102
RTVSPost2010PropOp30
 70
     1
102
RTVSPost2010Prop31
280
     0
102
RTVSPost2010PropOp31
 70
     1
102
RTVSPost2010Prop32
280
     0
102
RTVSPost2010PropOp32
 70
     1
102
RTVSPost2010Prop33
280
     0
102
RTVSPost2010PropOp33
 70
     1
102
RTVSPost2010Prop34
280
     0
102
RTVSPost2010PropOp34
 70
     1
102
RTVSPost2010Prop35
280
     0
102
RTVSPost2010PropOp35
 70
     1
102
RTVSPost2010Prop36
280
     0
102
RTVSPost2010PropOp36
 70
     1
102
RTVSPost2010Prop37
 90
       50
102
RTVSPost2010PropOp37
 70
     1
102
RTVSPost2010Prop38
140
0.0
102
RTVSPost2010PropOp38
 70
     1
102
RTVSPost2010Prop39
140
1.0
102
RTVSPost2010PropOp39
 70
     1
102
RTVSPost2010Prop40
 90
        0
102
RTVSPost2010PropOp40
 70
     1
102
RTVSPost2010Prop41ColorIndex
 90
       18
102
RTVSPost2010Prop41ColorRGB
 90
        0
102
RTVSPost2010PropOp41
 70
     1
102
RTVSPost2010Prop42
 90
       50
102
RTVSPost2010PropOp42
 70
     1
102
RTVSPost2010Prop43
 90
        3
102
RTVSPost2010PropOp43
 70
     1
102
RTVSPost2010Prop44ColorIndex
 90
        5
102
RTVSPost2010Prop44ColorRGB
 90
      255
102
RTVSPost2010PropOp44
 70
     1
102
RTVSPost2010Prop45
280
     0
102
RTVSPost2010PropOp45
 70
     1
102
RTVSPost2010Prop46
 90
       50
102
RTVSPost2010PropOp46
 70
     1
102
RTVSPost2010Prop47
 90
       50
102
RTVSPost2010PropOp47
 70
     1
102
RTVSPost2010Prop48
 90
       50
102
RTVSPost2010PropOp48
 70
     1
102
RTVSPost2010Prop49
280
     0
102
RTVSPost2010PropOp49
 70
     1
102
RTVSPost2010Prop50
 90
       50
102
RTVSPost2010PropOp50
 70
     1
102
RTVSPost2010Prop51ColorIndex
 90
      256
102
RTVSPost2010Prop51ColorRGB
 90
-16777216
102
RTVSPost2010PropOp51
 70
     0
102
RTVSPost2010Prop52
140
1.0
102
RTVSPost2010PropOp52
 70
     0
102
RTVSPost2010Prop53
 90
        2
102
RTVSPost2010PropOp53
 70
     1
102
RTVSPost2010Prop54
  1
strokes_ogs.tif
102
RTVSPost2010PropOp54
 70
     1
102
RTVSPost2010Prop55
280
     0
102
RTVSPost2010PropOp55
 70
     1
102
RTVSPost2010Prop56
140
1.0
102
RTVSPost2010PropOp56
 70
     1
102
RTVSPost2010Prop57
140
1.0
102
RTVSPost2010PropOp57
 70
     1
102
RTVSPropertyOp0
 70
     1
102
RTVSPropertyOp1
 70
     1
102
RTVSPropertyOp2
 70
     1
102
RTVSPropertyOp3
 70
     1
102
RTVSPropertyOp4
 70
     1
102
RTVSPropertyOp5
 70
     1
102
RTVSPropertyOp6
 70
     1
102
RTVSPropertyOp7
 70
     1
102
RTVSPropertyOp8
 70
     1
102
RTVSPropertyOp9
 70
     1
102
RTVSPropertyOp10
 70
     1
102
RTVSPropertyOp11
 70
     1
102
RTVSPropertyOp12
 70
     1
102
RTVSPropertyOp13
 70
     1
102
RTVSPropertyOp14
 70
     1
102
RTVSPropertyOp15
 70
     1
102
RTVSPropertyOp16
 70
     1
102
RTVSPropertyOp17
 70
     1
102
RTVSPropertyOp18
 70
     1
102
RTVSPropertyOp19
 70
     1
102
RTVSPropertyOp20
 70
     1
102
RTVSPropertyOp21
 70
     1
102
RTVSPropertyOp22
 70
     1
102
RTVSPropertyOp23
 70
     1
102
RTVSPropertyOp24
 70
     1
102
RTVSPropertyOp25
 70
     1
102
RTVSPropertyOp26
 70
     1
102
RTVSPropertyOp27
 70
     1
102
RTVSPropertyOp28
 70
     1
102
RTVSPropertyOp29
 70
     1
102
RTVSPropertyOp30
 70
     1
102
RTVSPropertyOp31
 70
     1
102
RTVSPropertyOp32
 70
     1
102
RTVSPropertyOp33
 70
     1
102
RTVSPropertyOp34
 70
     1
102
RTVSPropertyOp35
 70
     1
102
RTVSPropertyOp36
 70
     1
102
RTVSPropertyOp37
 70
     1
102
RTVSPropertyOp38
 70
     1
102
RTVSPropertyOp39
 70
     1
102
RTVSPropertyOp40
 70
     1
102
RTVSPropertyOp41
 70
     1
102
RTVSPropertyOp42
 70
     1
102
RTVSPropertyOp43
 70
     1
102
RTVSPropertyOp44
 70
     1
102
RTVSPropertyOp45
 70
     1
102
RTVSPropertyOp46
 70
     1
102
RTVSPropertyOp47
 70
     1
102
RTVSPropertyOp48
 70
     1
102
RTVSPropertyOp49
 70
     1
102
RTVSPropertyOp50
 70
     1
102
RTVSPropertyOp51
 70
     0
102
RTVSPropertyOp52
 70
     0
102
RTVSPropertyOp53
 70
     1
102
RTVSPropertyOp54
 70
     1
102
RTVSPropertyOp55
 70
     1
102
RTVSPropertyOp56
 70
     1
102
RTVSPropertyOp57
 70
     1
102
RTVSPropertyOp58
 70
     1
102
RTVSPropertyOp59
 70
     1
102
RTVSPropertyOp60
 70
     1
102
RTVSPropertyOp61
 70
     1
102
RTVSPropertyOp62
 70
     1
  0
XRECORD
  5
862
102
{ACAD_REACTORS
330
861
102
}
330
861
100
AcDbXrecord
280
     1
102
RTVSPost2010Prop28
280
     0
102
RTVSPost2010PropOp28
 70
     1
102
RTVSPost2010Prop29
280
     1
102
RTVSPost2010PropOp29
 70
     1
102
RTVSPost2010Prop30
280
     1
102
RTVSPost2010PropOp30
 70
     1
102
RTVSPost2010Prop31
280
     0
102
RTVSPost2010PropOp31
 70
     1
102
RTVSPost2010Prop32
280
     0
102
RTVSPost2010PropOp32
 70
     1
102
RTVSPost2010Prop33
280
     0
102
RTVSPost2010PropOp33
 70
     1
102
RTVSPost2010Prop34
280
     0
102
RTVSPost2010PropOp34
 70
     1
102
RTVSPost2010Prop35
280
     0
102
RTVSPost2010PropOp35
 70
     1
102
RTVSPost2010Prop36
280
     0
102
RTVSPost2010PropOp36
 70
     1
102
RTVSPost2010Prop37
 90
       50
102
RTVSPost2010PropOp37
 70
     1
102
RTVSPost2010Prop38
140
0.0
102
RTVSPost2010PropOp38
 70
     1
102
RTVSPost2010Prop39
140
1.0
102
RTVSPost2010PropOp39
 70
     1
102
RTVSPost2010Prop40
 90
        0
102
RTVSPost2010PropOp40
 70
     1
102
RTVSPost2010Prop41ColorIndex
 90
       18
102
RTVSPost2010Prop41ColorRGB
 90
        0
102
RTVSPost2010PropOp41
 70
     1
102
RTVSPost2010Prop42
 90
       50
102
RTVSPost2010PropOp42
 70
     1
102
RTVSPost2010Prop43
 90
        3
102
RTVSPost2010PropOp43
 70
     1
102
RTVSPost2010Prop44ColorIndex
 90
        5
102
RTVSPost2010Prop44ColorRGB
 90
      255
102
RTVSPost2010PropOp44
 70
     1
102
RTVSPost2010Prop45
280
     0
102
RTVSPost2010PropOp45
 70
     1
102
RTVSPost2010Prop46
 90
       50
102
RTVSPost2010PropOp46
 70
     1
102
RTVSPost2010Prop47
 90
       50
102
RTVSPost2010PropOp47
 70
     1
102
RTVSPost2010Prop48
 90
       50
102
RTVSPost2010PropOp48
 70
     1
102
RTVSPost2010Prop49
280
     0
102
RTVSPost2010PropOp49
 70
     1
102
RTVSPost2010Prop50
 90
       50
102
RTVSPost2010PropOp50
 70
     1
102
RTVSPost2010Prop51ColorIndex
 90
      256
102
RTVSPost2010Prop51ColorRGB
 90
-16777216
102
RTVSPost2010PropOp51
 70
     0
102
RTVSPost2010Prop52
140
1.0
102
RTVSPost2010PropOp52
 70
     0
102
RTVSPost2010Prop53
 90
        2
102
RTVSPost2010PropOp53
 70
     1
102
RTVSPost2010Prop54
  1
strokes_ogs.tif
102
RTVSPost2010PropOp54
 70
     1
102
RTVSPost2010Prop55
280
     0
102
RTVSPost2010PropOp55
 70
     1
102
RTVSPost2010Prop56
140
1.0
102
RTVSPost2010PropOp56
 70
     1
102
RTVSPost2010Prop57
140
1.0
102
RTVSPost2010PropOp57
 70
     1
102
RTVSPropertyOp0
 70
     1
102
RTVSPropertyOp1
 70
     1
102
RTVSPropertyOp2
 70
     1
102
RTVSPropertyOp3
 70
     1
102
RTVSPropertyOp4
 70
     1
102
RTVSPropertyOp5
 70
     1
102
RTVSPropertyOp6
 70
     1
102
RTVSPropertyOp7
 70
     1
102
RTVSPropertyOp8
 70
     1
102
RTVSPropertyOp9
 70
     1
102
RTVSPropertyOp10
 70
     1
102
RTVSPropertyOp11
 70
     1
102
RTVSPropertyOp12
 70
     1
102
RTVSPropertyOp13
 70
     1
102
RTVSPropertyOp14
 70
     1
102
RTVSPropertyOp15
 70
     1
102
RTVSPropertyOp16
 70
     1
102
RTVSPropertyOp17
 70
     1
102
RTVSPropertyOp18
 70
     1
102
RTVSPropertyOp19
 70
     1
102
RTVSPropertyOp20
 70
     1
102
RTVSPropertyOp21
 70
     1
102
RTVSPropertyOp22
 70
     1
102
RTVSPropertyOp23
 70
     1
102
RTVSPropertyOp24
 70
     1
102
RTVSPropertyOp25
 70
     1
102
RTVSPropertyOp26
 70
     1
102
RTVSPropertyOp27
 70
     1
102
RTVSPropertyOp28
 70
     1
102
RTVSPropertyOp29
 70
     1
102
RTVSPropertyOp30
 70
     1
102
RTVSPropertyOp31
 70
     1
102
RTVSPropertyOp32
 70
     1
102
RTVSPropertyOp33
 70
     1
102
RTVSPropertyOp34
 70
     1
102
RTVSPropertyOp35
 70
     1
102
RTVSPropertyOp36
 70
     1
102
RTVSPropertyOp37
 70
     1
102
RTVSPropertyOp38
 70
     1
102
RTVSPropertyOp39
 70
     1
102
RTVSPropertyOp40
 70
     1
102
RTVSPropertyOp41
 70
     1
102
RTVSPropertyOp42
 70
     1
102
RTVSPropertyOp43
 70
     1
102
RTVSPropertyOp44
 70
     1
102
RTVSPropertyOp45
 70
     1
102
RTVSPropertyOp46
 70
     1
102
RTVSPropertyOp47
 70
     1
102
RTVSPropertyOp48
 70
     1
102
RTVSPropertyOp49
 70
     1
102
RTVSPropertyOp50
 70
     1
102
RTVSPropertyOp51
 70
     0
102
RTVSPropertyOp52
 70
     0
102
RTVSPropertyOp53
 70
     1
102
RTVSPropertyOp54
 70
     1
102
RTVSPropertyOp55
 70
     1
102
RTVSPropertyOp56
 70
     1
102
RTVSPropertyOp57
 70
     1
102
RTVSPropertyOp58
 70
     1
102
RTVSPropertyOp59
 70
     1
102
RTVSPropertyOp60
 70
     1
102
RTVSPropertyOp61
 70
     1
102
RTVSPropertyOp62
 70
     1
  0
XRECORD
  5
870
102
{ACAD_REACTORS
330
86F
102
}
330
86F
100
AcDbXrecord
280
     1
102
RTVSPost2010Prop28
280
     0
102
RTVSPost2010PropOp28
 70
     1
102
RTVSPost2010Prop29
280
     1
102
RTVSPost2010PropOp29
 70
     1
102
RTVSPost2010Prop30
280
     1
102
RTVSPost2010PropOp30
 70
     1
102
RTVSPost2010Prop31
280
     0
102
RTVSPost2010PropOp31
 70
     1
102
RTVSPost2010Prop32
280
     0
102
RTVSPost2010PropOp32
 70
     1
102
RTVSPost2010Prop33
280
     0
102
RTVSPost2010PropOp33
 70
     1
102
RTVSPost2010Prop34
280
     0
102
RTVSPost2010PropOp34
 70
     1
102
RTVSPost2010Prop35
280
     0
102
RTVSPost2010PropOp35
 70
     1
102
RTVSPost2010Prop36
280
     0
102
RTVSPost2010PropOp36
 70
     1
102
RTVSPost2010Prop37
 90
       50
102
RTVSPost2010PropOp37
 70
     1
102
RTVSPost2010Prop38
140
0.0
102
RTVSPost2010PropOp38
 70
     1
102
RTVSPost2010Prop39
140
1.0
102
RTVSPost2010PropOp39
 70
     1
102
RTVSPost2010Prop40
 90
        0
102
RTVSPost2010PropOp40
 70
     1
102
RTVSPost2010Prop41ColorIndex
 90
       18
102
RTVSPost2010Prop41ColorRGB
 90
        0
102
RTVSPost2010PropOp41
 70
     1
102
RTVSPost2010Prop42
 90
       50
102
RTVSPost2010PropOp42
 70
     1
102
RTVSPost2010Prop43
 90
        3
102
RTVSPost2010PropOp43
 70
     1
102
RTVSPost2010Prop44ColorIndex
 90
        5
102
RTVSPost2010Prop44ColorRGB
 90
      255
102
RTVSPost2010PropOp44
 70
     1
102
RTVSPost2010Prop45
280
     0
102
RTVSPost2010PropOp45
 70
     1
102
RTVSPost2010Prop46
 90
       50
102
RTVSPost2010PropOp46
 70
     1
102
RTVSPost2010Prop47
 90
       50
102
RTVSPost2010PropOp47
 70
     1
102
RTVSPost2010Prop48
 90
       50
102
RTVSPost2010PropOp48
 70
     1
102
RTVSPost2010Prop49
280
     0
102
RTVSPost2010PropOp49
 70
     1
102
RTVSPost2010Prop50
 90
       50
102
RTVSPost2010PropOp50
 70
     1
102
RTVSPost2010Prop51ColorIndex
 90
      256
102
RTVSPost2010Prop51ColorRGB
 90
-16777216
102
RTVSPost2010PropOp51
 70
     0
102
RTVSPost2010Prop52
140
1.0
102
RTVSPost2010PropOp52
 70
     0
102
RTVSPost2010Prop53
 90
        2
102
RTVSPost2010PropOp53
 70
     1
102
RTVSPost2010Prop54
  1
strokes_ogs.tif
102
RTVSPost2010PropOp54
 70
     1
102
RTVSPost2010Prop55
280
     0
102
RTVSPost2010PropOp55
 70
     1
102
RTVSPost2010Prop56
140
1.0
102
RTVSPost2010PropOp56
 70
     1
102
RTVSPost2010Prop57
140
1.0
102
RTVSPost2010PropOp57
 70
     1
102
RTVSPropertyOp0
 70
     1
102
RTVSPropertyOp1
 70
     1
102
RTVSPropertyOp2
 70
     1
102
RTVSPropertyOp3
 70
     1
102
RTVSPropertyOp4
 70
     1
102
RTVSPropertyOp5
 70
     1
102
RTVSPropertyOp6
 70
     1
102
RTVSPropertyOp7
 70
     1
102
RTVSPropertyOp8
 70
     1
102
RTVSPropertyOp9
 70
     1
102
RTVSPropertyOp10
 70
     1
102
RTVSPropertyOp11
 70
     1
102
RTVSPropertyOp12
 70
     1
102
RTVSPropertyOp13
 70
     1
102
RTVSPropertyOp14
 70
     1
102
RTVSPropertyOp15
 70
     1
102
RTVSPropertyOp16
 70
     1
102
RTVSPropertyOp17
 70
     1
102
RTVSPropertyOp18
 70
     1
102
RTVSPropertyOp19
 70
     1
102
RTVSPropertyOp20
 70
     1
102
RTVSPropertyOp21
 70
     1
102
RTVSPropertyOp22
 70
     1
102
RTVSPropertyOp23
 70
     1
102
RTVSPropertyOp24
 70
     1
102
RTVSPropertyOp25
 70
     1
102
RTVSPropertyOp26
 70
     1
102
RTVSPropertyOp27
 70
     1
102
RTVSPropertyOp28
 70
     1
102
RTVSPropertyOp29
 70
     1
102
RTVSPropertyOp30
 70
     1
102
RTVSPropertyOp31
 70
     1
102
RTVSPropertyOp32
 70
     1
102
RTVSPropertyOp33
 70
     1
102
RTVSPropertyOp34
 70
     1
102
RTVSPropertyOp35
 70
     1
102
RTVSPropertyOp36
 70
     1
102
RTVSPropertyOp37
 70
     1
102
RTVSPropertyOp38
 70
     1
102
RTVSPropertyOp39
 70
     1
102
RTVSPropertyOp40
 70
     1
102
RTVSPropertyOp41
 70
     1
102
RTVSPropertyOp42
 70
     1
102
RTVSPropertyOp43
 70
     1
102
RTVSPropertyOp44
 70
     1
102
RTVSPropertyOp45
 70
     1
102
RTVSPropertyOp46
 70
     1
102
RTVSPropertyOp47
 70
     1
102
RTVSPropertyOp48
 70
     1
102
RTVSPropertyOp49
 70
     1
102
RTVSPropertyOp50
 70
     1
102
RTVSPropertyOp51
 70
     0
102
RTVSPropertyOp52
 70
     0
102
RTVSPropertyOp53
 70
     1
102
RTVSPropertyOp54
 70
     1
102
RTVSPropertyOp55
 70
     1
102
RTVSPropertyOp56
 70
     1
102
RTVSPropertyOp57
 70
     1
102
RTVSPropertyOp58
 70
     1
102
RTVSPropertyOp59
 70
     1
102
RTVSPropertyOp60
 70
     1
102
RTVSPropertyOp61
 70
     1
102
RTVSPropertyOp62
 70
     1
  0
XRECORD
  5
878
102
{ACAD_REACTORS
330
877
102
}
330
877
100
AcDbXrecord
280
     1
102
RTVSPost2010Prop28
280
     0
102
RTVSPost2010PropOp28
 70
     1
102
RTVSPost2010Prop29
280
     1
102
RTVSPost2010PropOp29
 70
     1
102
RTVSPost2010Prop30
280
     1
102
RTVSPost2010PropOp30
 70
     1
102
RTVSPost2010Prop31
280
     0
102
RTVSPost2010PropOp31
 70
     1
102
RTVSPost2010Prop32
280
     0
102
RTVSPost2010PropOp32
 70
     1
102
RTVSPost2010Prop33
280
     0
102
RTVSPost2010PropOp33
 70
     1
102
RTVSPost2010Prop34
280
     0
102
RTVSPost2010PropOp34
 70
     1
102
RTVSPost2010Prop35
280
     0
102
RTVSPost2010PropOp35
 70
     1
102
RTVSPost2010Prop36
280
     0
102
RTVSPost2010PropOp36
 70
     1
102
RTVSPost2010Prop37
 90
       50
102
RTVSPost2010PropOp37
 70
     1
102
RTVSPost2010Prop38
140
0.0
102
RTVSPost2010PropOp38
 70
     1
102
RTVSPost2010Prop39
140
1.0
102
RTVSPost2010PropOp39
 70
     1
102
RTVSPost2010Prop40
 90
        0
102
RTVSPost2010PropOp40
 70
     1
102
RTVSPost2010Prop41ColorIndex
 90
       18
102
RTVSPost2010Prop41ColorRGB
 90
        0
102
RTVSPost2010PropOp41
 70
     1
102
RTVSPost2010Prop42
 90
       50
102
RTVSPost2010PropOp42
 70
     1
102
RTVSPost2010Prop43
 90
        3
102
RTVSPost2010PropOp43
 70
     1
102
RTVSPost2010Prop44ColorIndex
 90
        5
102
RTVSPost2010Prop44ColorRGB
 90
      255
102
RTVSPost2010PropOp44
 70
     1
102
RTVSPost2010Prop45
280
     0
102
RTVSPost2010PropOp45
 70
     1
102
RTVSPost2010Prop46
 90
       50
102
RTVSPost2010PropOp46
 70
     1
102
RTVSPost2010Prop47
 90
       50
102
RTVSPost2010PropOp47
 70
     1
102
RTVSPost2010Prop48
 90
       50
102
RTVSPost2010PropOp48
 70
     1
102
RTVSPost2010Prop49
280
     0
102
RTVSPost2010PropOp49
 70
     1
102
RTVSPost2010Prop50
 90
       50
102
RTVSPost2010PropOp50
 70
     1
102
RTVSPost2010Prop51ColorIndex
 90
      256
102
RTVSPost2010Prop51ColorRGB
 90
-16777216
102
RTVSPost2010PropOp51
 70
     0
102
RTVSPost2010Prop52
140
1.0
102
RTVSPost2010PropOp52
 70
     0
102
RTVSPost2010Prop53
 90
        2
102
RTVSPost2010PropOp53
 70
     1
102
RTVSPost2010Prop54
  1
strokes_ogs.tif
102
RTVSPost2010PropOp54
 70
     1
102
RTVSPost2010Prop55
280
     0
102
RTVSPost2010PropOp55
 70
     1
102
RTVSPost2010Prop56
140
1.0
102
RTVSPost2010PropOp56
 70
     1
102
RTVSPost2010Prop57
140
1.0
102
RTVSPost2010PropOp57
 70
     1
102
RTVSPropertyOp0
 70
     1
102
RTVSPropertyOp1
 70
     1
102
RTVSPropertyOp2
 70
     1
102
RTVSPropertyOp3
 70
     1
102
RTVSPropertyOp4
 70
     1
102
RTVSPropertyOp5
 70
     1
102
RTVSPropertyOp6
 70
     1
102
RTVSPropertyOp7
 70
     1
102
RTVSPropertyOp8
 70
     1
102
RTVSPropertyOp9
 70
     1
102
RTVSPropertyOp10
 70
     1
102
RTVSPropertyOp11
 70
     1
102
RTVSPropertyOp12
 70
     1
102
RTVSPropertyOp13
 70
     1
102
RTVSPropertyOp14
 70
     1
102
RTVSPropertyOp15
 70
     1
102
RTVSPropertyOp16
 70
     1
102
RTVSPropertyOp17
 70
     1
102
RTVSPropertyOp18
 70
     1
102
RTVSPropertyOp19
 70
     1
102
RTVSPropertyOp20
 70
     1
102
RTVSPropertyOp21
 70
     1
102
RTVSPropertyOp22
 70
     1
102
RTVSPropertyOp23
 70
     1
102
RTVSPropertyOp24
 70
     1
102
RTVSPropertyOp25
 70
     1
102
RTVSPropertyOp26
 70
     1
102
RTVSPropertyOp27
 70
     1
102
RTVSPropertyOp28
 70
     1
102
RTVSPropertyOp29
 70
     1
102
RTVSPropertyOp30
 70
     1
102
RTVSPropertyOp31
 70
     1
102
RTVSPropertyOp32
 70
     1
102
RTVSPropertyOp33
 70
     1
102
RTVSPropertyOp34
 70
     1
102
RTVSPropertyOp35
 70
     1
102
RTVSPropertyOp36
 70
     1
102
RTVSPropertyOp37
 70
     1
102
RTVSPropertyOp38
 70
     1
102
RTVSPropertyOp39
 70
     1
102
RTVSPropertyOp40
 70
     1
102
RTVSPropertyOp41
 70
     1
102
RTVSPropertyOp42
 70
     1
102
RTVSPropertyOp43
 70
     1
102
RTVSPropertyOp44
 70
     1
102
RTVSPropertyOp45
 70
     1
102
RTVSPropertyOp46
 70
     1
102
RTVSPropertyOp47
 70
     1
102
RTVSPropertyOp48
 70
     1
102
RTVSPropertyOp49
 70
     1
102
RTVSPropertyOp50
 70
     1
102
RTVSPropertyOp51
 70
     0
102
RTVSPropertyOp52
 70
     0
102
RTVSPropertyOp53
 70
     1
102
RTVSPropertyOp54
 70
     1
102
RTVSPropertyOp55
 70
     1
102
RTVSPropertyOp56
 70
     1
102
RTVSPropertyOp57
 70
     1
102
RTVSPropertyOp58
 70
     1
102
RTVSPropertyOp59
 70
     1
102
RTVSPropertyOp60
 70
     1
102
RTVSPropertyOp61
 70
     1
102
RTVSPropertyOp62
 70
     1
  0
XRECORD
  5
86A
102
{ACAD_REACTORS
330
869
102
}
330
869
100
AcDbXrecord
280
     1
102
RTVSPost2010Prop28
280
     0
102
RTVSPost2010PropOp28
 70
     1
102
RTVSPost2010Prop29
280
     1
102
RTVSPost2010PropOp29
 70
     1
102
RTVSPost2010Prop30
280
     1
102
RTVSPost2010PropOp30
 70
     1
102
RTVSPost2010Prop31
280
     0
102
RTVSPost2010PropOp31
 70
     1
102
RTVSPost2010Prop32
280
     0
102
RTVSPost2010PropOp32
 70
     1
102
RTVSPost2010Prop33
280
     0
102
RTVSPost2010PropOp33
 70
     1
102
RTVSPost2010Prop34
280
     0
102
RTVSPost2010PropOp34
 70
     1
102
RTVSPost2010Prop35
280
     0
102
RTVSPost2010PropOp35
 70
     1
102
RTVSPost2010Prop36
280
     0
102
RTVSPost2010PropOp36
 70
     1
102
RTVSPost2010Prop37
 90
       50
102
RTVSPost2010PropOp37
 70
     1
102
RTVSPost2010Prop38
140
0.0
102
RTVSPost2010PropOp38
 70
     1
102
RTVSPost2010Prop39
140
1.0
102
RTVSPost2010PropOp39
 70
     1
102
RTVSPost2010Prop40
 90
        0
102
RTVSPost2010PropOp40
 70
     1
102
RTVSPost2010Prop41ColorIndex
 90
       18
102
RTVSPost2010Prop41ColorRGB
 90
        0
102
RTVSPost2010PropOp41
 70
     1
102
RTVSPost2010Prop42
 90
       50
102
RTVSPost2010PropOp42
 70
     1
102
RTVSPost2010Prop43
 90
        3
102
RTVSPost2010PropOp43
 70
     1
102
RTVSPost2010Prop44ColorIndex
 90
        5
102
RTVSPost2010Prop44ColorRGB
 90
      255
102
RTVSPost2010PropOp44
 70
     1
102
RTVSPost2010Prop45
280
     0
102
RTVSPost2010PropOp45
 70
     1
102
RTVSPost2010Prop46
 90
       50
102
RTVSPost2010PropOp46
 70
     1
102
RTVSPost2010Prop47
 90
       50
102
RTVSPost2010PropOp47
 70
     1
102
RTVSPost2010Prop48
 90
       50
102
RTVSPost2010PropOp48
 70
     1
102
RTVSPost2010Prop49
280
     0
102
RTVSPost2010PropOp49
 70
     1
102
RTVSPost2010Prop50
 90
       50
102
RTVSPost2010PropOp50
 70
     1
102
RTVSPost2010Prop51ColorIndex
 90
      256
102
RTVSPost2010Prop51ColorRGB
 90
-16777216
102
RTVSPost2010PropOp51
 70
     0
102
RTVSPost2010Prop52
140
1.0
102
RTVSPost2010PropOp52
 70
     0
102
RTVSPost2010Prop53
 90
        2
102
RTVSPost2010PropOp53
 70
     1
102
RTVSPost2010Prop54
  1
strokes_ogs.tif
102
RTVSPost2010PropOp54
 70
     1
102
RTVSPost2010Prop55
280
     0
102
RTVSPost2010PropOp55
 70
     1
102
RTVSPost2010Prop56
140
1.0
102
RTVSPost2010PropOp56
 70
     1
102
RTVSPost2010Prop57
140
1.0
102
RTVSPost2010PropOp57
 70
     1
102
RTVSPropertyOp0
 70
     1
102
RTVSPropertyOp1
 70
     1
102
RTVSPropertyOp2
 70
     1
102
RTVSPropertyOp3
 70
     1
102
RTVSPropertyOp4
 70
     1
102
RTVSPropertyOp5
 70
     1
102
RTVSPropertyOp6
 70
     1
102
RTVSPropertyOp7
 70
     1
102
RTVSPropertyOp8
 70
     1
102
RTVSPropertyOp9
 70
     1
102
RTVSPropertyOp10
 70
     1
102
RTVSPropertyOp11
 70
     1
102
RTVSPropertyOp12
 70
     1
102
RTVSPropertyOp13
 70
     1
102
RTVSPropertyOp14
 70
     1
102
RTVSPropertyOp15
 70
     1
102
RTVSPropertyOp16
 70
     1
102
RTVSPropertyOp17
 70
     1
102
RTVSPropertyOp18
 70
     1
102
RTVSPropertyOp19
 70
     1
102
RTVSPropertyOp20
 70
     1
102
RTVSPropertyOp21
 70
     1
102
RTVSPropertyOp22
 70
     1
102
RTVSPropertyOp23
 70
     1
102
RTVSPropertyOp24
 70
     1
102
RTVSPropertyOp25
 70
     1
102
RTVSPropertyOp26
 70
     1
102
RTVSPropertyOp27
 70
     1
102
RTVSPropertyOp28
 70
     1
102
RTVSPropertyOp29
 70
     1
102
RTVSPropertyOp30
 70
     1
102
RTVSPropertyOp31
 70
     1
102
RTVSPropertyOp32
 70
     1
102
RTVSPropertyOp33
 70
     1
102
RTVSPropertyOp34
 70
     1
102
RTVSPropertyOp35
 70
     1
102
RTVSPropertyOp36
 70
     1
102
RTVSPropertyOp37
 70
     1
102
RTVSPropertyOp38
 70
     1
102
RTVSPropertyOp39
 70
     1
102
RTVSPropertyOp40
 70
     1
102
RTVSPropertyOp41
 70
     1
102
RTVSPropertyOp42
 70
     1
102
RTVSPropertyOp43
 70
     1
102
RTVSPropertyOp44
 70
     1
102
RTVSPropertyOp45
 70
     1
102
RTVSPropertyOp46
 70
     1
102
RTVSPropertyOp47
 70
     1
102
RTVSPropertyOp48
 70
     1
102
RTVSPropertyOp49
 70
     1
102
RTVSPropertyOp50
 70
     1
102
RTVSPropertyOp51
 70
     0
102
RTVSPropertyOp52
 70
     0
102
RTVSPropertyOp53
 70
     1
102
RTVSPropertyOp54
 70
     1
102
RTVSPropertyOp55
 70
     1
102
RTVSPropertyOp56
 70
     1
102
RTVSPropertyOp57
 70
     1
102
RTVSPropertyOp58
 70
     1
102
RTVSPropertyOp59
 70
     1
102
RTVSPropertyOp60
 70
     1
102
RTVSPropertyOp61
 70
     1
102
RTVSPropertyOp62
 70
     1
  0
XRECORD
  5
86E
102
{ACAD_REACTORS
330
86D
102
}
330
86D
100
AcDbXrecord
280
     1
102
RTVSPost2010Prop28
280
     0
102
RTVSPost2010PropOp28
 70
     1
102
RTVSPost2010Prop29
280
     1
102
RTVSPost2010PropOp29
 70
     1
102
RTVSPost2010Prop30
280
     1
102
RTVSPost2010PropOp30
 70
     1
102
RTVSPost2010Prop31
280
     0
102
RTVSPost2010PropOp31
 70
     1
102
RTVSPost2010Prop32
280
     0
102
RTVSPost2010PropOp32
 70
     1
102
RTVSPost2010Prop33
280
     0
102
RTVSPost2010PropOp33
 70
     1
102
RTVSPost2010Prop34
280
     0
102
RTVSPost2010PropOp34
 70
     1
102
RTVSPost2010Prop35
280
     0
102
RTVSPost2010PropOp35
 70
     1
102
RTVSPost2010Prop36
280
     0
102
RTVSPost2010PropOp36
 70
     1
102
RTVSPost2010Prop37
 90
       50
102
RTVSPost2010PropOp37
 70
     1
102
RTVSPost2010Prop38
140
0.0
102
RTVSPost2010PropOp38
 70
     1
102
RTVSPost2010Prop39
140
1.0
102
RTVSPost2010PropOp39
 70
     1
102
RTVSPost2010Prop40
 90
        0
102
RTVSPost2010PropOp40
 70
     1
102
RTVSPost2010Prop41ColorIndex
 90
       18
102
RTVSPost2010Prop41ColorRGB
 90
        0
102
RTVSPost2010PropOp41
 70
     1
102
RTVSPost2010Prop42
 90
       50
102
RTVSPost2010PropOp42
 70
     1
102
RTVSPost2010Prop43
 90
        3
102
RTVSPost2010PropOp43
 70
     1
102
RTVSPost2010Prop44ColorIndex
 90
        5
102
RTVSPost2010Prop44ColorRGB
 90
      255
102
RTVSPost2010PropOp44
 70
     1
102
RTVSPost2010Prop45
280
     0
102
RTVSPost2010PropOp45
 70
     1
102
RTVSPost2010Prop46
 90
       50
102
RTVSPost2010PropOp46
 70
     1
102
RTVSPost2010Prop47
 90
       50
102
RTVSPost2010PropOp47
 70
     1
102
RTVSPost2010Prop48
 90
       50
102
RTVSPost2010PropOp48
 70
     1
102
RTVSPost2010Prop49
280
     0
102
RTVSPost2010PropOp49
 70
     1
102
RTVSPost2010Prop50
 90
       50
102
RTVSPost2010PropOp50
 70
     1
102
RTVSPost2010Prop51ColorIndex
 90
      256
102
RTVSPost2010Prop51ColorRGB
 90
-16777216
102
RTVSPost2010PropOp51
 70
     0
102
RTVSPost2010Prop52
140
1.0
102
RTVSPost2010PropOp52
 70
     0
102
RTVSPost2010Prop53
 90
        2
102
RTVSPost2010PropOp53
 70
     1
102
RTVSPost2010Prop54
  1
strokes_ogs.tif
102
RTVSPost2010PropOp54
 70
     1
102
RTVSPost2010Prop55
280
     0
102
RTVSPost2010PropOp55
 70
     1
102
RTVSPost2010Prop56
140
1.0
102
RTVSPost2010PropOp56
 70
     1
102
RTVSPost2010Prop57
140
1.0
102
RTVSPost2010PropOp57
 70
     1
102
RTVSPropertyOp0
 70
     1
102
RTVSPropertyOp1
 70
     1
102
RTVSPropertyOp2
 70
     1
102
RTVSPropertyOp3
 70
     1
102
RTVSPropertyOp4
 70
     1
102
RTVSPropertyOp5
 70
     1
102
RTVSPropertyOp6
 70
     1
102
RTVSPropertyOp7
 70
     1
102
RTVSPropertyOp8
 70
     1
102
RTVSPropertyOp9
 70
     1
102
RTVSPropertyOp10
 70
     1
102
RTVSPropertyOp11
 70
     1
102
RTVSPropertyOp12
 70
     1
102
RTVSPropertyOp13
 70
     1
102
RTVSPropertyOp14
 70
     1
102
RTVSPropertyOp15
 70
     1
102
RTVSPropertyOp16
 70
     1
102
RTVSPropertyOp17
 70
     1
102
RTVSPropertyOp18
 70
     1
102
RTVSPropertyOp19
 70
     1
102
RTVSPropertyOp20
 70
     1
102
RTVSPropertyOp21
 70
     1
102
RTVSPropertyOp22
 70
     1
102
RTVSPropertyOp23
 70
     1
102
RTVSPropertyOp24
 70
     1
102
RTVSPropertyOp25
 70
     1
102
RTVSPropertyOp26
 70
     1
102
RTVSPropertyOp27
 70
     1
102
RTVSPropertyOp28
 70
     1
102
RTVSPropertyOp29
 70
     1
102
RTVSPropertyOp30
 70
     1
102
RTVSPropertyOp31
 70
     1
102
RTVSPropertyOp32
 70
     1
102
RTVSPropertyOp33
 70
     1
102
RTVSPropertyOp34
 70
     1
102
RTVSPropertyOp35
 70
     1
102
RTVSPropertyOp36
 70
     1
102
RTVSPropertyOp37
 70
     1
102
RTVSPropertyOp38
 70
     1
102
RTVSPropertyOp39
 70
     1
102
RTVSPropertyOp40
 70
     1
102
RTVSPropertyOp41
 70
     1
102
RTVSPropertyOp42
 70
     1
102
RTVSPropertyOp43
 70
     1
102
RTVSPropertyOp44
 70
     1
102
RTVSPropertyOp45
 70
     1
102
RTVSPropertyOp46
 70
     1
102
RTVSPropertyOp47
 70
     1
102
RTVSPropertyOp48
 70
     1
102
RTVSPropertyOp49
 70
     1
102
RTVSPropertyOp50
 70
     1
102
RTVSPropertyOp51
 70
     0
102
RTVSPropertyOp52
 70
     0
102
RTVSPropertyOp53
 70
     1
102
RTVSPropertyOp54
 70
     1
102
RTVSPropertyOp55
 70
     1
102
RTVSPropertyOp56
 70
     1
102
RTVSPropertyOp57
 70
     1
102
RTVSPropertyOp58
 70
     1
102
RTVSPropertyOp59
 70
     1
102
RTVSPropertyOp60
 70
     1
102
RTVSPropertyOp61
 70
     1
102
RTVSPropertyOp62
 70
     1
  0
XRECORD
  5
888
102
{ACAD_REACTORS
330
887
102
}
330
887
100
AcDbXrecord
280
     1
102
RTVSPost2010Prop28
280
     0
102
RTVSPost2010PropOp28
 70
     1
102
RTVSPost2010Prop29
280
     1
102
RTVSPost2010PropOp29
 70
     1
102
RTVSPost2010Prop30
280
     1
102
RTVSPost2010PropOp30
 70
     1
102
RTVSPost2010Prop31
280
     0
102
RTVSPost2010PropOp31
 70
     1
102
RTVSPost2010Prop32
280
     0
102
RTVSPost2010PropOp32
 70
     1
102
RTVSPost2010Prop33
280
     0
102
RTVSPost2010PropOp33
 70
     1
102
RTVSPost2010Prop34
280
     0
102
RTVSPost2010PropOp34
 70
     1
102
RTVSPost2010Prop35
280
     0
102
RTVSPost2010PropOp35
 70
     1
102
RTVSPost2010Prop36
280
     0
102
RTVSPost2010PropOp36
 70
     1
102
RTVSPost2010Prop37
 90
       50
102
RTVSPost2010PropOp37
 70
     0
102
RTVSPost2010Prop38
140
0.0
102
RTVSPost2010PropOp38
 70
     0
102
RTVSPost2010Prop39
140
1.0
102
RTVSPost2010PropOp39
 70
     0
102
RTVSPost2010Prop40
 90
        0
102
RTVSPost2010PropOp40
 70
     0
102
RTVSPost2010Prop41ColorIndex
 90
       18
102
RTVSPost2010Prop41ColorRGB
 90
        0
102
RTVSPost2010PropOp41
 70
     0
102
RTVSPost2010Prop42
 90
       50
102
RTVSPost2010PropOp42
 70
     0
102
RTVSPost2010Prop43
 90
        3
102
RTVSPost2010PropOp43
 70
     0
102
RTVSPost2010Prop44ColorIndex
 90
        5
102
RTVSPost2010Prop44ColorRGB
 90
      255
102
RTVSPost2010PropOp44
 70
     0
102
RTVSPost2010Prop45
280
     0
102
RTVSPost2010PropOp45
 70
     1
102
RTVSPost2010Prop46
 90
       50
102
RTVSPost2010PropOp46
 70
     0
102
RTVSPost2010Prop47
 90
       50
102
RTVSPost2010PropOp47
 70
     0
102
RTVSPost2010Prop48
 90
       50
102
RTVSPost2010PropOp48
 70
     0
102
RTVSPost2010Prop49
280
     0
102
RTVSPost2010PropOp49
 70
     1
102
RTVSPost2010Prop50
 90
       50
102
RTVSPost2010PropOp50
 70
     0
102
RTVSPost2010Prop51ColorIndex
 90
      256
102
RTVSPost2010Prop51ColorRGB
 90
-16777216
102
RTVSPost2010PropOp51
 70
     0
102
RTVSPost2010Prop52
140
1.0
102
RTVSPost2010PropOp52
 70
     0
102
RTVSPost2010Prop53
 90
        2
102
RTVSPost2010PropOp53
 70
     0
102
RTVSPost2010Prop54
  1
strokes_ogs.tif
102
RTVSPost2010PropOp54
 70
     0
102
RTVSPost2010Prop55
280
     0
102
RTVSPost2010PropOp55
 70
     1
102
RTVSPost2010Prop56
140
1.0
102
RTVSPost2010PropOp56
 70
     0
102
RTVSPost2010Prop57
140
1.0
102
RTVSPost2010PropOp57
 70
     0
102
RTVSPropertyOp0
 70
     0
102
RTVSPropertyOp1
 70
     0
102
RTVSPropertyOp2
 70
     0
102
RTVSPropertyOp3
 70
     0
102
RTVSPropertyOp4
 70
     0
102
RTVSPropertyOp5
 70
     0
102
RTVSPropertyOp6
 70
     0
102
RTVSPropertyOp7
 70
     0
102
RTVSPropertyOp8
 70
     0
102
RTVSPropertyOp9
 70
     0
102
RTVSPropertyOp10
 70
     0
102
RTVSPropertyOp11
 70
     0
102
RTVSPropertyOp12
 70
     0
102
RTVSPropertyOp13
 70
     0
102
RTVSPropertyOp14
 70
     2
102
RTVSPropertyOp15
 70
     0
102
RTVSPropertyOp16
 70
     0
102
RTVSPropertyOp17
 70
     0
102
RTVSPropertyOp18
 70
     0
102
RTVSPropertyOp19
 70
     0
102
RTVSPropertyOp20
 70
     0
102
RTVSPropertyOp21
 70
     0
102
RTVSPropertyOp22
 70
     0
102
RTVSPropertyOp23
 70
     0
102
RTVSPropertyOp24
 70
     0
102
RTVSPropertyOp25
 70
     0
102
RTVSPropertyOp26
 70
     0
102
RTVSPropertyOp27
 70
     0
102
RTVSPropertyOp28
 70
     1
102
RTVSPropertyOp29
 70
     1
102
RTVSPropertyOp30
 70
     1
102
RTVSPropertyOp31
 70
     1
102
RTVSPropertyOp32
 70
     1
102
RTVSPropertyOp33
 70
     1
102
RTVSPropertyOp34
 70
     1
102
RTVSPropertyOp35
 70
     1
102
RTVSPropertyOp36
 70
     1
102
RTVSPropertyOp37
 70
     0
102
RTVSPropertyOp38
 70
     0
102
RTVSPropertyOp39
 70
     0
102
RTVSPropertyOp40
 70
     0
102
RTVSPropertyOp41
 70
     0
102
RTVSPropertyOp42
 70
     0
102
RTVSPropertyOp43
 70
     0
102
RTVSPropertyOp44
 70
     0
102
RTVSPropertyOp45
 70
     1
102
RTVSPropertyOp46
 70
     0
102
RTVSPropertyOp47
 70
     0
102
RTVSPropertyOp48
 70
     0
102
RTVSPropertyOp49
 70
     1
102
RTVSPropertyOp50
 70
     0
102
RTVSPropertyOp51
 70
     0
102
RTVSPropertyOp52
 70
     0
102
RTVSPropertyOp53
 70
     0
102
RTVSPropertyOp54
 70
     0
102
RTVSPropertyOp55
 70
     1
102
RTVSPropertyOp56
 70
     0
102
RTVSPropertyOp57
 70
     0
102
RTVSPropertyOp58
 70
     0
102
RTVSPropertyOp59
 70
     0
102
RTVSPropertyOp60
 70
     0
102
RTVSPropertyOp61
 70
     0
102
RTVSPropertyOp62
 70
     0
  0
XRECORD
  5
876
102
{ACAD_REACTORS
330
875
102
}
330
875
100
AcDbXrecord
280
     1
102
RTVSPost2010Prop28
280
     0
102
RTVSPost2010PropOp28
 70
     1
102
RTVSPost2010Prop29
280
     1
102
RTVSPost2010PropOp29
 70
     1
102
RTVSPost2010Prop30
280
     1
102
RTVSPost2010PropOp30
 70
     1
102
RTVSPost2010Prop31
280
     0
102
RTVSPost2010PropOp31
 70
     1
102
RTVSPost2010Prop32
280
     0
102
RTVSPost2010PropOp32
 70
     1
102
RTVSPost2010Prop33
280
     0
102
RTVSPost2010PropOp33
 70
     1
102
RTVSPost2010Prop34
280
     0
102
RTVSPost2010PropOp34
 70
     1
102
RTVSPost2010Prop35
280
     0
102
RTVSPost2010PropOp35
 70
     1
102
RTVSPost2010Prop36
280
     0
102
RTVSPost2010PropOp36
 70
     1
102
RTVSPost2010Prop37
 90
       50
102
RTVSPost2010PropOp37
 70
     1
102
RTVSPost2010Prop38
140
0.0
102
RTVSPost2010PropOp38
 70
     1
102
RTVSPost2010Prop39
140
1.0
102
RTVSPost2010PropOp39
 70
     1
102
RTVSPost2010Prop40
 90
        0
102
RTVSPost2010PropOp40
 70
     1
102
RTVSPost2010Prop41ColorIndex
 90
       18
102
RTVSPost2010Prop41ColorRGB
 90
        0
102
RTVSPost2010PropOp41
 70
     1
102
RTVSPost2010Prop42
 90
       50
102
RTVSPost2010PropOp42
 70
     1
102
RTVSPost2010Prop43
 90
        3
102
RTVSPost2010PropOp43
 70
     1
102
RTVSPost2010Prop44ColorIndex
 90
        5
102
RTVSPost2010Prop44ColorRGB
 90
      255
102
RTVSPost2010PropOp44
 70
     1
102
RTVSPost2010Prop45
280
     0
102
RTVSPost2010PropOp45
 70
     1
102
RTVSPost2010Prop46
 90
       50
102
RTVSPost2010PropOp46
 70
     1
102
RTVSPost2010Prop47
 90
       50
102
RTVSPost2010PropOp47
 70
     1
102
RTVSPost2010Prop48
 90
       50
102
RTVSPost2010PropOp48
 70
     1
102
RTVSPost2010Prop49
280
     0
102
RTVSPost2010PropOp49
 70
     1
102
RTVSPost2010Prop50
 90
       50
102
RTVSPost2010PropOp50
 70
     1
102
RTVSPost2010Prop51ColorIndex
 90
      256
102
RTVSPost2010Prop51ColorRGB
 90
-16777216
102
RTVSPost2010PropOp51
 70
     0
102
RTVSPost2010Prop52
140
1.0
102
RTVSPost2010PropOp52
 70
     0
102
RTVSPost2010Prop53
 90
        2
102
RTVSPost2010PropOp53
 70
     1
102
RTVSPost2010Prop54
  1
strokes_ogs.tif
102
RTVSPost2010PropOp54
 70
     1
102
RTVSPost2010Prop55
280
     0
102
RTVSPost2010PropOp55
 70
     1
102
RTVSPost2010Prop56
140
1.0
102
RTVSPost2010PropOp56
 70
     1
102
RTVSPost2010Prop57
140
1.0
102
RTVSPost2010PropOp57
 70
     1
102
RTVSPropertyOp0
 70
     1
102
RTVSPropertyOp1
 70
     1
102
RTVSPropertyOp2
 70
     1
102
RTVSPropertyOp3
 70
     1
102
RTVSPropertyOp4
 70
     1
102
RTVSPropertyOp5
 70
     1
102
RTVSPropertyOp6
 70
     1
102
RTVSPropertyOp7
 70
     1
102
RTVSPropertyOp8
 70
     1
102
RTVSPropertyOp9
 70
     1
102
RTVSPropertyOp10
 70
     1
102
RTVSPropertyOp11
 70
     1
102
RTVSPropertyOp12
 70
     1
102
RTVSPropertyOp13
 70
     1
102
RTVSPropertyOp14
 70
     1
102
RTVSPropertyOp15
 70
     1
102
RTVSPropertyOp16
 70
     1
102
RTVSPropertyOp17
 70
     1
102
RTVSPropertyOp18
 70
     1
102
RTVSPropertyOp19
 70
     1
102
RTVSPropertyOp20
 70
     1
102
RTVSPropertyOp21
 70
     1
102
RTVSPropertyOp22
 70
     1
102
RTVSPropertyOp23
 70
     1
102
RTVSPropertyOp24
 70
     1
102
RTVSPropertyOp25
 70
     1
102
RTVSPropertyOp26
 70
     1
102
RTVSPropertyOp27
 70
     1
102
RTVSPropertyOp28
 70
     1
102
RTVSPropertyOp29
 70
     1
102
RTVSPropertyOp30
 70
     1
102
RTVSPropertyOp31
 70
     1
102
RTVSPropertyOp32
 70
     1
102
RTVSPropertyOp33
 70
     1
102
RTVSPropertyOp34
 70
     1
102
RTVSPropertyOp35
 70
     1
102
RTVSPropertyOp36
 70
     1
102
RTVSPropertyOp37
 70
     1
102
RTVSPropertyOp38
 70
     1
102
RTVSPropertyOp39
 70
     1
102
RTVSPropertyOp40
 70
     1
102
RTVSPropertyOp41
 70
     1
102
RTVSPropertyOp42
 70
     1
102
RTVSPropertyOp43
 70
     1
102
RTVSPropertyOp44
 70
     1
102
RTVSPropertyOp45
 70
     1
102
RTVSPropertyOp46
 70
     1
102
RTVSPropertyOp47
 70
     1
102
RTVSPropertyOp48
 70
     1
102
RTVSPropertyOp49
 70
     1
102
RTVSPropertyOp50
 70
     1
102
RTVSPropertyOp51
 70
     0
102
RTVSPropertyOp52
 70
     0
102
RTVSPropertyOp53
 70
     1
102
RTVSPropertyOp54
 70
     1
102
RTVSPropertyOp55
 70
     1
102
RTVSPropertyOp56
 70
     1
102
RTVSPropertyOp57
 70
     1
102
RTVSPropertyOp58
 70
     1
102
RTVSPropertyOp59
 70
     1
102
RTVSPropertyOp60
 70
     1
102
RTVSPropertyOp61
 70
     1
102
RTVSPropertyOp62
 70
     1
  0
XRECORD
  5
85A
102
{ACAD_REACTORS
330
859
102
}
330
859
100
AcDbXrecord
280
     1
102
RTVSPost2010Prop28
280
     0
102
RTVSPost2010PropOp28
 70
     1
102
RTVSPost2010Prop29
280
     1
102
RTVSPost2010PropOp29
 70
     1
102
RTVSPost2010Prop30
280
     1
102
RTVSPost2010PropOp30
 70
     1
102
RTVSPost2010Prop31
280
     0
102
RTVSPost2010PropOp31
 70
     1
102
RTVSPost2010Prop32
280
     0
102
RTVSPost2010PropOp32
 70
     1
102
RTVSPost2010Prop33
280
     0
102
RTVSPost2010PropOp33
 70
     1
102
RTVSPost2010Prop34
280
     0
102
RTVSPost2010PropOp34
 70
     1
102
RTVSPost2010Prop35
280
     0
102
RTVSPost2010PropOp35
 70
     1
102
RTVSPost2010Prop36
280
     0
102
RTVSPost2010PropOp36
 70
     1
102
RTVSPost2010Prop37
 90
       50
102
RTVSPost2010PropOp37
 70
     1
102
RTVSPost2010Prop38
140
0.0
102
RTVSPost2010PropOp38
 70
     1
102
RTVSPost2010Prop39
140
1.0
102
RTVSPost2010PropOp39
 70
     1
102
RTVSPost2010Prop40
 90
        0
102
RTVSPost2010PropOp40
 70
     1
102
RTVSPost2010Prop41ColorIndex
 90
       18
102
RTVSPost2010Prop41ColorRGB
 90
        0
102
RTVSPost2010PropOp41
 70
     1
102
RTVSPost2010Prop42
 90
       50
102
RTVSPost2010PropOp42
 70
     1
102
RTVSPost2010Prop43
 90
        3
102
RTVSPost2010PropOp43
 70
     1
102
RTVSPost2010Prop44ColorIndex
 90
        5
102
RTVSPost2010Prop44ColorRGB
 90
      255
102
RTVSPost2010PropOp44
 70
     1
102
RTVSPost2010Prop45
280
     0
102
RTVSPost2010PropOp45
 70
     1
102
RTVSPost2010Prop46
 90
       50
102
RTVSPost2010PropOp46
 70
     1
102
RTVSPost2010Prop47
 90
       50
102
RTVSPost2010PropOp47
 70
     1
102
RTVSPost2010Prop48
 90
       50
102
RTVSPost2010PropOp48
 70
     1
102
RTVSPost2010Prop49
280
     0
102
RTVSPost2010PropOp49
 70
     1
102
RTVSPost2010Prop50
 90
       50
102
RTVSPost2010PropOp50
 70
     1
102
RTVSPost2010Prop51ColorIndex
 90
      256
102
RTVSPost2010Prop51ColorRGB
 90
-16777216
102
RTVSPost2010PropOp51
 70
     0
102
RTVSPost2010Prop52
140
1.0
102
RTVSPost2010PropOp52
 70
     0
102
RTVSPost2010Prop53
 90
        2
102
RTVSPost2010PropOp53
 70
     1
102
RTVSPost2010Prop54
  1
strokes_ogs.tif
102
RTVSPost2010PropOp54
 70
     1
102
RTVSPost2010Prop55
280
     0
102
RTVSPost2010PropOp55
 70
     1
102
RTVSPost2010Prop56
140
1.0
102
RTVSPost2010PropOp56
 70
     1
102
RTVSPost2010Prop57
140
1.0
102
RTVSPost2010PropOp57
 70
     1
102
RTVSPropertyOp0
 70
     1
102
RTVSPropertyOp1
 70
     1
102
RTVSPropertyOp2
 70
     1
102
RTVSPropertyOp3
 70
     1
102
RTVSPropertyOp4
 70
     1
102
RTVSPropertyOp5
 70
     1
102
RTVSPropertyOp6
 70
     1
102
RTVSPropertyOp7
 70
     1
102
RTVSPropertyOp8
 70
     1
102
RTVSPropertyOp9
 70
     1
102
RTVSPropertyOp10
 70
     1
102
RTVSPropertyOp11
 70
     1
102
RTVSPropertyOp12
 70
     1
102
RTVSPropertyOp13
 70
     1
102
RTVSPropertyOp14
 70
     1
102
RTVSPropertyOp15
 70
     1
102
RTVSPropertyOp16
 70
     1
102
RTVSPropertyOp17
 70
     1
102
RTVSPropertyOp18
 70
     1
102
RTVSPropertyOp19
 70
     1
102
RTVSPropertyOp20
 70
     1
102
RTVSPropertyOp21
 70
     1
102
RTVSPropertyOp22
 70
     1
102
RTVSPropertyOp23
 70
     1
102
RTVSPropertyOp24
 70
     1
102
RTVSPropertyOp25
 70
     1
102
RTVSPropertyOp26
 70
     1
102
RTVSPropertyOp27
 70
     1
102
RTVSPropertyOp28
 70
     1
102
RTVSPropertyOp29
 70
     1
102
RTVSPropertyOp30
 70
     1
102
RTVSPropertyOp31
 70
     1
102
RTVSPropertyOp32
 70
     1
102
RTVSPropertyOp33
 70
     1
102
RTVSPropertyOp34
 70
     1
102
RTVSPropertyOp35
 70
     1
102
RTVSPropertyOp36
 70
     1
102
RTVSPropertyOp37
 70
     1
102
RTVSPropertyOp38
 70
     1
102
RTVSPropertyOp39
 70
     1
102
RTVSPropertyOp40
 70
     1
102
RTVSPropertyOp41
 70
     1
102
RTVSPropertyOp42
 70
     1
102
RTVSPropertyOp43
 70
     1
102
RTVSPropertyOp44
 70
     1
102
RTVSPropertyOp45
 70
     1
102
RTVSPropertyOp46
 70
     1
102
RTVSPropertyOp47
 70
     1
102
RTVSPropertyOp48
 70
     1
102
RTVSPropertyOp49
 70
     1
102
RTVSPropertyOp50
 70
     1
102
RTVSPropertyOp51
 70
     0
102
RTVSPropertyOp52
 70
     0
102
RTVSPropertyOp53
 70
     1
102
RTVSPropertyOp54
 70
     1
102
RTVSPropertyOp55
 70
     1
102
RTVSPropertyOp56
 70
     1
102
RTVSPropertyOp57
 70
     1
102
RTVSPropertyOp58
 70
     1
102
RTVSPropertyOp59
 70
     1
102
RTVSPropertyOp60
 70
     1
102
RTVSPropertyOp61
 70
     1
102
RTVSPropertyOp62
 70
     1
  0
XRECORD
  5
85C
102
{ACAD_REACTORS
330
85B
102
}
330
85B
100
AcDbXrecord
280
     1
102
RTVSPost2010Prop28
280
     0
102
RTVSPost2010PropOp28
 70
     1
102
RTVSPost2010Prop29
280
     1
102
RTVSPost2010PropOp29
 70
     1
102
RTVSPost2010Prop30
280
     1
102
RTVSPost2010PropOp30
 70
     1
102
RTVSPost2010Prop31
280
     0
102
RTVSPost2010PropOp31
 70
     1
102
RTVSPost2010Prop32
280
     0
102
RTVSPost2010PropOp32
 70
     1
102
RTVSPost2010Prop33
280
     0
102
RTVSPost2010PropOp33
 70
     1
102
RTVSPost2010Prop34
280
     0
102
RTVSPost2010PropOp34
 70
     1
102
RTVSPost2010Prop35
280
     0
102
RTVSPost2010PropOp35
 70
     1
102
RTVSPost2010Prop36
280
     0
102
RTVSPost2010PropOp36
 70
     1
102
RTVSPost2010Prop37
 90
       50
102
RTVSPost2010PropOp37
 70
     1
102
RTVSPost2010Prop38
140
0.0
102
RTVSPost2010PropOp38
 70
     1
102
RTVSPost2010Prop39
140
1.0
102
RTVSPost2010PropOp39
 70
     1
102
RTVSPost2010Prop40
 90
        0
102
RTVSPost2010PropOp40
 70
     1
102
RTVSPost2010Prop41ColorIndex
 90
       18
102
RTVSPost2010Prop41ColorRGB
 90
        0
102
RTVSPost2010PropOp41
 70
     1
102
RTVSPost2010Prop42
 90
       50
102
RTVSPost2010PropOp42
 70
     1
102
RTVSPost2010Prop43
 90
        3
102
RTVSPost2010PropOp43
 70
     1
102
RTVSPost2010Prop44ColorIndex
 90
        5
102
RTVSPost2010Prop44ColorRGB
 90
      255
102
RTVSPost2010PropOp44
 70
     1
102
RTVSPost2010Prop45
280
     0
102
RTVSPost2010PropOp45
 70
     1
102
RTVSPost2010Prop46
 90
       50
102
RTVSPost2010PropOp46
 70
     1
102
RTVSPost2010Prop47
 90
       50
102
RTVSPost2010PropOp47
 70
     1
102
RTVSPost2010Prop48
 90
       50
102
RTVSPost2010PropOp48
 70
     1
102
RTVSPost2010Prop49
280
     0
102
RTVSPost2010PropOp49
 70
     1
102
RTVSPost2010Prop50
 90
       50
102
RTVSPost2010PropOp50
 70
     1
102
RTVSPost2010Prop51ColorIndex
 90
      256
102
RTVSPost2010Prop51ColorRGB
 90
-16777216
102
RTVSPost2010PropOp51
 70
     0
102
RTVSPost2010Prop52
140
1.0
102
RTVSPost2010PropOp52
 70
     0
102
RTVSPost2010Prop53
 90
        2
102
RTVSPost2010PropOp53
 70
     1
102
RTVSPost2010Prop54
  1
strokes_ogs.tif
102
RTVSPost2010PropOp54
 70
     1
102
RTVSPost2010Prop55
280
     0
102
RTVSPost2010PropOp55
 70
     1
102
RTVSPost2010Prop56
140
1.0
102
RTVSPost2010PropOp56
 70
     1
102
RTVSPost2010Prop57
140
1.0
102
RTVSPost2010PropOp57
 70
     1
102
RTVSPropertyOp0
 70
     1
102
RTVSPropertyOp1
 70
     1
102
RTVSPropertyOp2
 70
     1
102
RTVSPropertyOp3
 70
     1
102
RTVSPropertyOp4
 70
     1
102
RTVSPropertyOp5
 70
     1
102
RTVSPropertyOp6
 70
     1
102
RTVSPropertyOp7
 70
     1
102
RTVSPropertyOp8
 70
     1
102
RTVSPropertyOp9
 70
     1
102
RTVSPropertyOp10
 70
     1
102
RTVSPropertyOp11
 70
     1
102
RTVSPropertyOp12
 70
     1
102
RTVSPropertyOp13
 70
     1
102
RTVSPropertyOp14
 70
     1
102
RTVSPropertyOp15
 70
     1
102
RTVSPropertyOp16
 70
     1
102
RTVSPropertyOp17
 70
     1
102
RTVSPropertyOp18
 70
     1
102
RTVSPropertyOp19
 70
     1
102
RTVSPropertyOp20
 70
     1
102
RTVSPropertyOp21
 70
     1
102
RTVSPropertyOp22
 70
     1
102
RTVSPropertyOp23
 70
     1
102
RTVSPropertyOp24
 70
     1
102
RTVSPropertyOp25
 70
     1
102
RTVSPropertyOp26
 70
     1
102
RTVSPropertyOp27
 70
     1
102
RTVSPropertyOp28
 70
     1
102
RTVSPropertyOp29
 70
     1
102
RTVSPropertyOp30
 70
     1
102
RTVSPropertyOp31
 70
     1
102
RTVSPropertyOp32
 70
     1
102
RTVSPropertyOp33
 70
     1
102
RTVSPropertyOp34
 70
     1
102
RTVSPropertyOp35
 70
     1
102
RTVSPropertyOp36
 70
     1
102
RTVSPropertyOp37
 70
     1
102
RTVSPropertyOp38
 70
     1
102
RTVSPropertyOp39
 70
     1
102
RTVSPropertyOp40
 70
     1
102
RTVSPropertyOp41
 70
     1
102
RTVSPropertyOp42
 70
     1
102
RTVSPropertyOp43
 70
     1
102
RTVSPropertyOp44
 70
     1
102
RTVSPropertyOp45
 70
     1
102
RTVSPropertyOp46
 70
     1
102
RTVSPropertyOp47
 70
     1
102
RTVSPropertyOp48
 70
     1
102
RTVSPropertyOp49
 70
     1
102
RTVSPropertyOp50
 70
     1
102
RTVSPropertyOp51
 70
     0
102
RTVSPropertyOp52
 70
     0
102
RTVSPropertyOp53
 70
     1
102
RTVSPropertyOp54
 70
     1
102
RTVSPropertyOp55
 70
     1
102
RTVSPropertyOp56
 70
     1
102
RTVSPropertyOp57
 70
     1
102
RTVSPropertyOp58
 70
     1
102
RTVSPropertyOp59
 70
     1
102
RTVSPropertyOp60
 70
     1
102
RTVSPropertyOp61
 70
     1
102
RTVSPropertyOp62
 70
     1
  0
XRECORD
  5
85E
102
{ACAD_REACTORS
330
85D
102
}
330
85D
100
AcDbXrecord
280
     1
102
RTVSPost2010Prop28
280
     0
102
RTVSPost2010PropOp28
 70
     1
102
RTVSPost2010Prop29
280
     1
102
RTVSPost2010PropOp29
 70
     1
102
RTVSPost2010Prop30
280
     1
102
RTVSPost2010PropOp30
 70
     1
102
RTVSPost2010Prop31
280
     0
102
RTVSPost2010PropOp31
 70
     1
102
RTVSPost2010Prop32
280
     0
102
RTVSPost2010PropOp32
 70
     1
102
RTVSPost2010Prop33
280
     0
102
RTVSPost2010PropOp33
 70
     1
102
RTVSPost2010Prop34
280
     0
102
RTVSPost2010PropOp34
 70
     1
102
RTVSPost2010Prop35
280
     0
102
RTVSPost2010PropOp35
 70
     1
102
RTVSPost2010Prop36
280
     0
102
RTVSPost2010PropOp36
 70
     1
102
RTVSPost2010Prop37
 90
       50
102
RTVSPost2010PropOp37
 70
     1
102
RTVSPost2010Prop38
140
0.0
102
RTVSPost2010PropOp38
 70
     1
102
RTVSPost2010Prop39
140
1.0
102
RTVSPost2010PropOp39
 70
     1
102
RTVSPost2010Prop40
 90
        0
102
RTVSPost2010PropOp40
 70
     1
102
RTVSPost2010Prop41ColorIndex
 90
       18
102
RTVSPost2010Prop41ColorRGB
 90
        0
102
RTVSPost2010PropOp41
 70
     1
102
RTVSPost2010Prop42
 90
       50
102
RTVSPost2010PropOp42
 70
     1
102
RTVSPost2010Prop43
 90
        3
102
RTVSPost2010PropOp43
 70
     1
102
RTVSPost2010Prop44ColorIndex
 90
        5
102
RTVSPost2010Prop44ColorRGB
 90
      255
102
RTVSPost2010PropOp44
 70
     1
102
RTVSPost2010Prop45
280
     0
102
RTVSPost2010PropOp45
 70
     1
102
RTVSPost2010Prop46
 90
       50
102
RTVSPost2010PropOp46
 70
     1
102
RTVSPost2010Prop47
 90
       50
102
RTVSPost2010PropOp47
 70
     1
102
RTVSPost2010Prop48
 90
       50
102
RTVSPost2010PropOp48
 70
     1
102
RTVSPost2010Prop49
280
     0
102
RTVSPost2010PropOp49
 70
     1
102
RTVSPost2010Prop50
 90
       50
102
RTVSPost2010PropOp50
 70
     1
102
RTVSPost2010Prop51ColorIndex
 90
      256
102
RTVSPost2010Prop51ColorRGB
 90
-16777216
102
RTVSPost2010PropOp51
 70
     0
102
RTVSPost2010Prop52
140
1.0
102
RTVSPost2010PropOp52
 70
     0
102
RTVSPost2010Prop53
 90
        2
102
RTVSPost2010PropOp53
 70
     1
102
RTVSPost2010Prop54
  1
strokes_ogs.tif
102
RTVSPost2010PropOp54
 70
     1
102
RTVSPost2010Prop55
280
     0
102
RTVSPost2010PropOp55
 70
     1
102
RTVSPost2010Prop56
140
1.0
102
RTVSPost2010PropOp56
 70
     1
102
RTVSPost2010Prop57
140
1.0
102
RTVSPost2010PropOp57
 70
     1
102
RTVSPropertyOp0
 70
     1
102
RTVSPropertyOp1
 70
     1
102
RTVSPropertyOp2
 70
     1
102
RTVSPropertyOp3
 70
     1
102
RTVSPropertyOp4
 70
     1
102
RTVSPropertyOp5
 70
     1
102
RTVSPropertyOp6
 70
     1
102
RTVSPropertyOp7
 70
     1
102
RTVSPropertyOp8
 70
     1
102
RTVSPropertyOp9
 70
     1
102
RTVSPropertyOp10
 70
     1
102
RTVSPropertyOp11
 70
     1
102
RTVSPropertyOp12
 70
     1
102
RTVSPropertyOp13
 70
     1
102
RTVSPropertyOp14
 70
     1
102
RTVSPropertyOp15
 70
     1
102
RTVSPropertyOp16
 70
     1
102
RTVSPropertyOp17
 70
     1
102
RTVSPropertyOp18
 70
     1
102
RTVSPropertyOp19
 70
     1
102
RTVSPropertyOp20
 70
     1
102
RTVSPropertyOp21
 70
     1
102
RTVSPropertyOp22
 70
     1
102
RTVSPropertyOp23
 70
     1
102
RTVSPropertyOp24
 70
     1
102
RTVSPropertyOp25
 70
     1
102
RTVSPropertyOp26
 70
     1
102
RTVSPropertyOp27
 70
     1
102
RTVSPropertyOp28
 70
     1
102
RTVSPropertyOp29
 70
     1
102
RTVSPropertyOp30
 70
     1
102
RTVSPropertyOp31
 70
     1
102
RTVSPropertyOp32
 70
     1
102
RTVSPropertyOp33
 70
     1
102
RTVSPropertyOp34
 70
     1
102
RTVSPropertyOp35
 70
     1
102
RTVSPropertyOp36
 70
     1
102
RTVSPropertyOp37
 70
     1
102
RTVSPropertyOp38
 70
     1
102
RTVSPropertyOp39
 70
     1
102
RTVSPropertyOp40
 70
     1
102
RTVSPropertyOp41
 70
     1
102
RTVSPropertyOp42
 70
     1
102
RTVSPropertyOp43
 70
     1
102
RTVSPropertyOp44
 70
     1
102
RTVSPropertyOp45
 70
     1
102
RTVSPropertyOp46
 70
     1
102
RTVSPropertyOp47
 70
     1
102
RTVSPropertyOp48
 70
     1
102
RTVSPropertyOp49
 70
     1
102
RTVSPropertyOp50
 70
     1
102
RTVSPropertyOp51
 70
     0
102
RTVSPropertyOp52
 70
     0
102
RTVSPropertyOp53
 70
     1
102
RTVSPropertyOp54
 70
     1
102
RTVSPropertyOp55
 70
     1
102
RTVSPropertyOp56
 70
     1
102
RTVSPropertyOp57
 70
     1
102
RTVSPropertyOp58
 70
     1
102
RTVSPropertyOp59
 70
     1
102
RTVSPropertyOp60
 70
     1
102
RTVSPropertyOp61
 70
     1
102
RTVSPropertyOp62
 70
     1
  0
XRECORD
  5
860
102
{ACAD_REACTORS
330
85F
102
}
330
85F
100
AcDbXrecord
280
     1
102
RTVSPost2010Prop28
280
     0
102
RTVSPost2010PropOp28
 70
     1
102
RTVSPost2010Prop29
280
     1
102
RTVSPost2010PropOp29
 70
     1
102
RTVSPost2010Prop30
280
     1
102
RTVSPost2010PropOp30
 70
     1
102
RTVSPost2010Prop31
280
     0
102
RTVSPost2010PropOp31
 70
     1
102
RTVSPost2010Prop32
280
     0
102
RTVSPost2010PropOp32
 70
     1
102
RTVSPost2010Prop33
280
     0
102
RTVSPost2010PropOp33
 70
     1
102
RTVSPost2010Prop34
280
     0
102
RTVSPost2010PropOp34
 70
     1
102
RTVSPost2010Prop35
280
     0
102
RTVSPost2010PropOp35
 70
     1
102
RTVSPost2010Prop36
280
     0
102
RTVSPost2010PropOp36
 70
     1
102
RTVSPost2010Prop37
 90
       50
102
RTVSPost2010PropOp37
 70
     1
102
RTVSPost2010Prop38
140
0.0
102
RTVSPost2010PropOp38
 70
     1
102
RTVSPost2010Prop39
140
1.0
102
RTVSPost2010PropOp39
 70
     1
102
RTVSPost2010Prop40
 90
        0
102
RTVSPost2010PropOp40
 70
     1
102
RTVSPost2010Prop41ColorIndex
 90
       18
102
RTVSPost2010Prop41ColorRGB
 90
        0
102
RTVSPost2010PropOp41
 70
     1
102
RTVSPost2010Prop42
 90
       50
102
RTVSPost2010PropOp42
 70
     1
102
RTVSPost2010Prop43
 90
        3
102
RTVSPost2010PropOp43
 70
     1
102
RTVSPost2010Prop44ColorIndex
 90
        5
102
RTVSPost2010Prop44ColorRGB
 90
      255
102
RTVSPost2010PropOp44
 70
     1
102
RTVSPost2010Prop45
280
     0
102
RTVSPost2010PropOp45
 70
     1
102
RTVSPost2010Prop46
 90
       50
102
RTVSPost2010PropOp46
 70
     1
102
RTVSPost2010Prop47
 90
       50
102
RTVSPost2010PropOp47
 70
     1
102
RTVSPost2010Prop48
 90
       50
102
RTVSPost2010PropOp48
 70
     1
102
RTVSPost2010Prop49
280
     0
102
RTVSPost2010PropOp49
 70
     1
102
RTVSPost2010Prop50
 90
       50
102
RTVSPost2010PropOp50
 70
     1
102
RTVSPost2010Prop51ColorIndex
 90
      256
102
RTVSPost2010Prop51ColorRGB
 90
-16777216
102
RTVSPost2010PropOp51
 70
     0
102
RTVSPost2010Prop52
140
1.0
102
RTVSPost2010PropOp52
 70
     0
102
RTVSPost2010Prop53
 90
        2
102
RTVSPost2010PropOp53
 70
     1
102
RTVSPost2010Prop54
  1
strokes_ogs.tif
102
RTVSPost2010PropOp54
 70
     1
102
RTVSPost2010Prop55
280
     0
102
RTVSPost2010PropOp55
 70
     1
102
RTVSPost2010Prop56
140
1.0
102
RTVSPost2010PropOp56
 70
     1
102
RTVSPost2010Prop57
140
1.0
102
RTVSPost2010PropOp57
 70
     1
102
RTVSPropertyOp0
 70
     1
102
RTVSPropertyOp1
 70
     1
102
RTVSPropertyOp2
 70
     1
102
RTVSPropertyOp3
 70
     1
102
RTVSPropertyOp4
 70
     1
102
RTVSPropertyOp5
 70
     1
102
RTVSPropertyOp6
 70
     1
102
RTVSPropertyOp7
 70
     1
102
RTVSPropertyOp8
 70
     1
102
RTVSPropertyOp9
 70
     1
102
RTVSPropertyOp10
 70
     1
102
RTVSPropertyOp11
 70
     1
102
RTVSPropertyOp12
 70
     1
102
RTVSPropertyOp13
 70
     1
102
RTVSPropertyOp14
 70
     1
102
RTVSPropertyOp15
 70
     1
102
RTVSPropertyOp16
 70
     1
102
RTVSPropertyOp17
 70
     1
102
RTVSPropertyOp18
 70
     1
102
RTVSPropertyOp19
 70
     1
102
RTVSPropertyOp20
 70
     1
102
RTVSPropertyOp21
 70
     1
102
RTVSPropertyOp22
 70
     1
102
RTVSPropertyOp23
 70
     1
102
RTVSPropertyOp24
 70
     1
102
RTVSPropertyOp25
 70
     1
102
RTVSPropertyOp26
 70
     1
102
RTVSPropertyOp27
 70
     1
102
RTVSPropertyOp28
 70
     1
102
RTVSPropertyOp29
 70
     1
102
RTVSPropertyOp30
 70
     1
102
RTVSPropertyOp31
 70
     1
102
RTVSPropertyOp32
 70
     1
102
RTVSPropertyOp33
 70
     1
102
RTVSPropertyOp34
 70
     1
102
RTVSPropertyOp35
 70
     1
102
RTVSPropertyOp36
 70
     1
102
RTVSPropertyOp37
 70
     1
102
RTVSPropertyOp38
 70
     1
102
RTVSPropertyOp39
 70
     1
102
RTVSPropertyOp40
 70
     1
102
RTVSPropertyOp41
 70
     1
102
RTVSPropertyOp42
 70
     1
102
RTVSPropertyOp43
 70
     1
102
RTVSPropertyOp44
 70
     1
102
RTVSPropertyOp45
 70
     1
102
RTVSPropertyOp46
 70
     1
102
RTVSPropertyOp47
 70
     1
102
RTVSPropertyOp48
 70
     1
102
RTVSPropertyOp49
 70
     1
102
RTVSPropertyOp50
 70
     1
102
RTVSPropertyOp51
 70
     0
102
RTVSPropertyOp52
 70
     0
102
RTVSPropertyOp53
 70
     1
102
RTVSPropertyOp54
 70
     1
102
RTVSPropertyOp55
 70
     1
102
RTVSPropertyOp56
 70
     1
102
RTVSPropertyOp57
 70
     1
102
RTVSPropertyOp58
 70
     1
102
RTVSPropertyOp59
 70
     1
102
RTVSPropertyOp60
 70
     1
102
RTVSPropertyOp61
 70
     1
102
RTVSPropertyOp62
 70
     1
  0
XRECORD
  5
868
102
{ACAD_REACTORS
330
867
102
}
330
867
100
AcDbXrecord
280
     1
102
RTVSPost2010Prop28
280
     0
102
RTVSPost2010PropOp28
 70
     1
102
RTVSPost2010Prop29
280
     1
102
RTVSPost2010PropOp29
 70
     1
102
RTVSPost2010Prop30
280
     1
102
RTVSPost2010PropOp30
 70
     1
102
RTVSPost2010Prop31
280
     0
102
RTVSPost2010PropOp31
 70
     1
102
RTVSPost2010Prop32
280
     0
102
RTVSPost2010PropOp32
 70
     1
102
RTVSPost2010Prop33
280
     0
102
RTVSPost2010PropOp33
 70
     1
102
RTVSPost2010Prop34
280
     0
102
RTVSPost2010PropOp34
 70
     1
102
RTVSPost2010Prop35
280
     0
102
RTVSPost2010PropOp35
 70
     1
102
RTVSPost2010Prop36
280
     0
102
RTVSPost2010PropOp36
 70
     1
102
RTVSPost2010Prop37
 90
       50
102
RTVSPost2010PropOp37
 70
     1
102
RTVSPost2010Prop38
140
0.0
102
RTVSPost2010PropOp38
 70
     1
102
RTVSPost2010Prop39
140
1.0
102
RTVSPost2010PropOp39
 70
     1
102
RTVSPost2010Prop40
 90
        0
102
RTVSPost2010PropOp40
 70
     1
102
RTVSPost2010Prop41ColorIndex
 90
       18
102
RTVSPost2010Prop41ColorRGB
 90
        0
102
RTVSPost2010PropOp41
 70
     1
102
RTVSPost2010Prop42
 90
       50
102
RTVSPost2010PropOp42
 70
     1
102
RTVSPost2010Prop43
 90
        3
102
RTVSPost2010PropOp43
 70
     1
102
RTVSPost2010Prop44ColorIndex
 90
        5
102
RTVSPost2010Prop44ColorRGB
 90
      255
102
RTVSPost2010PropOp44
 70
     1
102
RTVSPost2010Prop45
280
     0
102
RTVSPost2010PropOp45
 70
     1
102
RTVSPost2010Prop46
 90
       50
102
RTVSPost2010PropOp46
 70
     1
102
RTVSPost2010Prop47
 90
       50
102
RTVSPost2010PropOp47
 70
     1
102
RTVSPost2010Prop48
 90
       50
102
RTVSPost2010PropOp48
 70
     1
102
RTVSPost2010Prop49
280
     0
102
RTVSPost2010PropOp49
 70
     1
102
RTVSPost2010Prop50
 90
       50
102
RTVSPost2010PropOp50
 70
     1
102
RTVSPost2010Prop51ColorIndex
 90
      256
102
RTVSPost2010Prop51ColorRGB
 90
-16777216
102
RTVSPost2010PropOp51
 70
     0
102
RTVSPost2010Prop52
140
1.0
102
RTVSPost2010PropOp52
 70
     0
102
RTVSPost2010Prop53
 90
        2
102
RTVSPost2010PropOp53
 70
     1
102
RTVSPost2010Prop54
  1
strokes_ogs.tif
102
RTVSPost2010PropOp54
 70
     1
102
RTVSPost2010Prop55
280
     0
102
RTVSPost2010PropOp55
 70
     1
102
RTVSPost2010Prop56
140
1.0
102
RTVSPost2010PropOp56
 70
     1
102
RTVSPost2010Prop57
140
1.0
102
RTVSPost2010PropOp57
 70
     1
102
RTVSPropertyOp0
 70
     1
102
RTVSPropertyOp1
 70
     1
102
RTVSPropertyOp2
 70
     1
102
RTVSPropertyOp3
 70
     1
102
RTVSPropertyOp4
 70
     1
102
RTVSPropertyOp5
 70
     1
102
RTVSPropertyOp6
 70
     1
102
RTVSPropertyOp7
 70
     1
102
RTVSPropertyOp8
 70
     1
102
RTVSPropertyOp9
 70
     1
102
RTVSPropertyOp10
 70
     1
102
RTVSPropertyOp11
 70
     1
102
RTVSPropertyOp12
 70
     1
102
RTVSPropertyOp13
 70
     1
102
RTVSPropertyOp14
 70
     1
102
RTVSPropertyOp15
 70
     1
102
RTVSPropertyOp16
 70
     1
102
RTVSPropertyOp17
 70
     1
102
RTVSPropertyOp18
 70
     1
102
RTVSPropertyOp19
 70
     1
102
RTVSPropertyOp20
 70
     1
102
RTVSPropertyOp21
 70
     1
102
RTVSPropertyOp22
 70
     1
102
RTVSPropertyOp23
 70
     1
102
RTVSPropertyOp24
 70
     1
102
RTVSPropertyOp25
 70
     1
102
RTVSPropertyOp26
 70
     1
102
RTVSPropertyOp27
 70
     1
102
RTVSPropertyOp28
 70
     1
102
RTVSPropertyOp29
 70
     1
102
RTVSPropertyOp30
 70
     1
102
RTVSPropertyOp31
 70
     1
102
RTVSPropertyOp32
 70
     1
102
RTVSPropertyOp33
 70
     1
102
RTVSPropertyOp34
 70
     1
102
RTVSPropertyOp35
 70
     1
102
RTVSPropertyOp36
 70
     1
102
RTVSPropertyOp37
 70
     1
102
RTVSPropertyOp38
 70
     1
102
RTVSPropertyOp39
 70
     1
102
RTVSPropertyOp40
 70
     1
102
RTVSPropertyOp41
 70
     1
102
RTVSPropertyOp42
 70
     1
102
RTVSPropertyOp43
 70
     1
102
RTVSPropertyOp44
 70
     1
102
RTVSPropertyOp45
 70
     1
102
RTVSPropertyOp46
 70
     1
102
RTVSPropertyOp47
 70
     1
102
RTVSPropertyOp48
 70
     1
102
RTVSPropertyOp49
 70
     1
102
RTVSPropertyOp50
 70
     1
102
RTVSPropertyOp51
 70
     0
102
RTVSPropertyOp52
 70
     0
102
RTVSPropertyOp53
 70
     1
102
RTVSPropertyOp54
 70
     1
102
RTVSPropertyOp55
 70
     1
102
RTVSPropertyOp56
 70
     1
102
RTVSPropertyOp57
 70
     1
102
RTVSPropertyOp58
 70
     1
102
RTVSPropertyOp59
 70
     1
102
RTVSPropertyOp60
 70
     1
102
RTVSPropertyOp61
 70
     1
102
RTVSPropertyOp62
 70
     1
  0
XRECORD
  5
884
102
{ACAD_REACTORS
330
883
102
}
330
883
100
AcDbXrecord
280
     1
102
RTVSPost2010Prop28
280
     0
102
RTVSPost2010PropOp28
 70
     1
102
RTVSPost2010Prop29
280
     1
102
RTVSPost2010PropOp29
 70
     1
102
RTVSPost2010Prop30
280
     1
102
RTVSPost2010PropOp30
 70
     1
102
RTVSPost2010Prop31
280
     0
102
RTVSPost2010PropOp31
 70
     1
102
RTVSPost2010Prop32
280
     0
102
RTVSPost2010PropOp32
 70
     1
102
RTVSPost2010Prop33
280
     0
102
RTVSPost2010PropOp33
 70
     1
102
RTVSPost2010Prop34
280
     0
102
RTVSPost2010PropOp34
 70
     1
102
RTVSPost2010Prop35
280
     0
102
RTVSPost2010PropOp35
 70
     1
102
RTVSPost2010Prop36
280
     0
102
RTVSPost2010PropOp36
 70
     1
102
RTVSPost2010Prop37
 90
       50
102
RTVSPost2010PropOp37
 70
     0
102
RTVSPost2010Prop38
140
0.0
102
RTVSPost2010PropOp38
 70
     0
102
RTVSPost2010Prop39
140
1.0
102
RTVSPost2010PropOp39
 70
     0
102
RTVSPost2010Prop40
 90
        0
102
RTVSPost2010PropOp40
 70
     0
102
RTVSPost2010Prop41ColorIndex
 90
       18
102
RTVSPost2010Prop41ColorRGB
 90
        0
102
RTVSPost2010PropOp41
 70
     0
102
RTVSPost2010Prop42
 90
       50
102
RTVSPost2010PropOp42
 70
     0
102
RTVSPost2010Prop43
 90
        3
102
RTVSPost2010PropOp43
 70
     0
102
RTVSPost2010Prop44ColorIndex
 90
        5
102
RTVSPost2010Prop44ColorRGB
 90
      255
102
RTVSPost2010PropOp44
 70
     0
102
RTVSPost2010Prop45
280
     0
102
RTVSPost2010PropOp45
 70
     1
102
RTVSPost2010Prop46
 90
       50
102
RTVSPost2010PropOp46
 70
     0
102
RTVSPost2010Prop47
 90
       50
102
RTVSPost2010PropOp47
 70
     0
102
RTVSPost2010Prop48
 90
       50
102
RTVSPost2010PropOp48
 70
     0
102
RTVSPost2010Prop49
280
     0
102
RTVSPost2010PropOp49
 70
     1
102
RTVSPost2010Prop50
 90
       50
102
RTVSPost2010PropOp50
 70
     0
102
RTVSPost2010Prop51ColorIndex
 90
      256
102
RTVSPost2010Prop51ColorRGB
 90
-16777216
102
RTVSPost2010PropOp51
 70
     0
102
RTVSPost2010Prop52
140
1.0
102
RTVSPost2010PropOp52
 70
     0
102
RTVSPost2010Prop53
 90
        2
102
RTVSPost2010PropOp53
 70
     0
102
RTVSPost2010Prop54
  1
strokes_ogs.tif
102
RTVSPost2010PropOp54
 70
     0
102
RTVSPost2010Prop55
280
     0
102
RTVSPost2010PropOp55
 70
     1
102
RTVSPost2010Prop56
140
1.0
102
RTVSPost2010PropOp56
 70
     0
102
RTVSPost2010Prop57
140
1.0
102
RTVSPost2010PropOp57
 70
     0
102
RTVSPropertyOp0
 70
     0
102
RTVSPropertyOp1
 70
     0
102
RTVSPropertyOp2
 70
     0
102
RTVSPropertyOp3
 70
     0
102
RTVSPropertyOp4
 70
     0
102
RTVSPropertyOp5
 70
     0
102
RTVSPropertyOp6
 70
     0
102
RTVSPropertyOp7
 70
     0
102
RTVSPropertyOp8
 70
     0
102
RTVSPropertyOp9
 70
     0
102
RTVSPropertyOp10
 70
     0
102
RTVSPropertyOp11
 70
     0
102
RTVSPropertyOp12
 70
     0
102
RTVSPropertyOp13
 70
     0
102
RTVSPropertyOp14
 70
     2
102
RTVSPropertyOp15
 70
     0
102
RTVSPropertyOp16
 70
     0
102
RTVSPropertyOp17
 70
     0
102
RTVSPropertyOp18
 70
     0
102
RTVSPropertyOp19
 70
     0
102
RTVSPropertyOp20
 70
     0
102
RTVSPropertyOp21
 70
     0
102
RTVSPropertyOp22
 70
     0
102
RTVSPropertyOp23
 70
     0
102
RTVSPropertyOp24
 70
     0
102
RTVSPropertyOp25
 70
     0
102
RTVSPropertyOp26
 70
     0
102
RTVSPropertyOp27
 70
     0
102
RTVSPropertyOp28
 70
     1
102
RTVSPropertyOp29
 70
     1
102
RTVSPropertyOp30
 70
     1
102
RTVSPropertyOp31
 70
     1
102
RTVSPropertyOp32
 70
     1
102
RTVSPropertyOp33
 70
     1
102
RTVSPropertyOp34
 70
     1
102
RTVSPropertyOp35
 70
     1
102
RTVSPropertyOp36
 70
     1
102
RTVSPropertyOp37
 70
     0
102
RTVSPropertyOp38
 70
     0
102
RTVSPropertyOp39
 70
     0
102
RTVSPropertyOp40
 70
     0
102
RTVSPropertyOp41
 70
     0
102
RTVSPropertyOp42
 70
     0
102
RTVSPropertyOp43
 70
     0
102
RTVSPropertyOp44
 70
     0
102
RTVSPropertyOp45
 70
     1
102
RTVSPropertyOp46
 70
     0
102
RTVSPropertyOp47
 70
     0
102
RTVSPropertyOp48
 70
     0
102
RTVSPropertyOp49
 70
     1
102
RTVSPropertyOp50
 70
     0
102
RTVSPropertyOp51
 70
     0
102
RTVSPropertyOp52
 70
     0
102
RTVSPropertyOp53
 70
     0
102
RTVSPropertyOp54
 70
     0
102
RTVSPropertyOp55
 70
     1
102
RTVSPropertyOp56
 70
     0
102
RTVSPropertyOp57
 70
     0
102
RTVSPropertyOp58
 70
     0
102
RTVSPropertyOp59
 70
     0
102
RTVSPropertyOp60
 70
     0
102
RTVSPropertyOp61
 70
     0
102
RTVSPropertyOp62
 70
     0
  0
XRECORD
  5
874
102
{ACAD_REACTORS
330
873
102
}
330
873
100
AcDbXrecord
280
     1
102
RTVSPost2010Prop28
280
     0
102
RTVSPost2010PropOp28
 70
     1
102
RTVSPost2010Prop29
280
     1
102
RTVSPost2010PropOp29
 70
     1
102
RTVSPost2010Prop30
280
     1
102
RTVSPost2010PropOp30
 70
     1
102
RTVSPost2010Prop31
280
     0
102
RTVSPost2010PropOp31
 70
     1
102
RTVSPost2010Prop32
280
     0
102
RTVSPost2010PropOp32
 70
     1
102
RTVSPost2010Prop33
280
     0
102
RTVSPost2010PropOp33
 70
     1
102
RTVSPost2010Prop34
280
     0
102
RTVSPost2010PropOp34
 70
     1
102
RTVSPost2010Prop35
280
     0
102
RTVSPost2010PropOp35
 70
     1
102
RTVSPost2010Prop36
280
     0
102
RTVSPost2010PropOp36
 70
     1
102
RTVSPost2010Prop37
 90
       50
102
RTVSPost2010PropOp37
 70
     1
102
RTVSPost2010Prop38
140
0.0
102
RTVSPost2010PropOp38
 70
     1
102
RTVSPost2010Prop39
140
1.0
102
RTVSPost2010PropOp39
 70
     1
102
RTVSPost2010Prop40
 90
        0
102
RTVSPost2010PropOp40
 70
     1
102
RTVSPost2010Prop41ColorIndex
 90
       18
102
RTVSPost2010Prop41ColorRGB
 90
        0
102
RTVSPost2010PropOp41
 70
     1
102
RTVSPost2010Prop42
 90
       50
102
RTVSPost2010PropOp42
 70
     1
102
RTVSPost2010Prop43
 90
        3
102
RTVSPost2010PropOp43
 70
     1
102
RTVSPost2010Prop44ColorIndex
 90
        5
102
RTVSPost2010Prop44ColorRGB
 90
      255
102
RTVSPost2010PropOp44
 70
     1
102
RTVSPost2010Prop45
280
     0
102
RTVSPost2010PropOp45
 70
     1
102
RTVSPost2010Prop46
 90
       50
102
RTVSPost2010PropOp46
 70
     1
102
RTVSPost2010Prop47
 90
       50
102
RTVSPost2010PropOp47
 70
     1
102
RTVSPost2010Prop48
 90
       50
102
RTVSPost2010PropOp48
 70
     1
102
RTVSPost2010Prop49
280
     0
102
RTVSPost2010PropOp49
 70
     1
102
RTVSPost2010Prop50
 90
       50
102
RTVSPost2010PropOp50
 70
     1
102
RTVSPost2010Prop51ColorIndex
 90
      256
102
RTVSPost2010Prop51ColorRGB
 90
-16777216
102
RTVSPost2010PropOp51
 70
     0
102
RTVSPost2010Prop52
140
1.0
102
RTVSPost2010PropOp52
 70
     0
102
RTVSPost2010Prop53
 90
        2
102
RTVSPost2010PropOp53
 70
     1
102
RTVSPost2010Prop54
  1
strokes_ogs.tif
102
RTVSPost2010PropOp54
 70
     1
102
RTVSPost2010Prop55
280
     0
102
RTVSPost2010PropOp55
 70
     1
102
RTVSPost2010Prop56
140
1.0
102
RTVSPost2010PropOp56
 70
     1
102
RTVSPost2010Prop57
140
1.0
102
RTVSPost2010PropOp57
 70
     1
102
RTVSPropertyOp0
 70
     1
102
RTVSPropertyOp1
 70
     1
102
RTVSPropertyOp2
 70
     1
102
RTVSPropertyOp3
 70
     1
102
RTVSPropertyOp4
 70
     1
102
RTVSPropertyOp5
 70
     1
102
RTVSPropertyOp6
 70
     1
102
RTVSPropertyOp7
 70
     1
102
RTVSPropertyOp8
 70
     1
102
RTVSPropertyOp9
 70
     1
102
RTVSPropertyOp10
 70
     1
102
RTVSPropertyOp11
 70
     1
102
RTVSPropertyOp12
 70
     1
102
RTVSPropertyOp13
 70
     1
102
RTVSPropertyOp14
 70
     1
102
RTVSPropertyOp15
 70
     1
102
RTVSPropertyOp16
 70
     1
102
RTVSPropertyOp17
 70
     1
102
RTVSPropertyOp18
 70
     1
102
RTVSPropertyOp19
 70
     1
102
RTVSPropertyOp20
 70
     1
102
RTVSPropertyOp21
 70
     1
102
RTVSPropertyOp22
 70
     1
102
RTVSPropertyOp23
 70
     1
102
RTVSPropertyOp24
 70
     1
102
RTVSPropertyOp25
 70
     1
102
RTVSPropertyOp26
 70
     1
102
RTVSPropertyOp27
 70
     1
102
RTVSPropertyOp28
 70
     1
102
RTVSPropertyOp29
 70
     1
102
RTVSPropertyOp30
 70
     1
102
RTVSPropertyOp31
 70
     1
102
RTVSPropertyOp32
 70
     1
102
RTVSPropertyOp33
 70
     1
102
RTVSPropertyOp34
 70
     1
102
RTVSPropertyOp35
 70
     1
102
RTVSPropertyOp36
 70
     1
102
RTVSPropertyOp37
 70
     1
102
RTVSPropertyOp38
 70
     1
102
RTVSPropertyOp39
 70
     1
102
RTVSPropertyOp40
 70
     1
102
RTVSPropertyOp41
 70
     1
102
RTVSPropertyOp42
 70
     1
102
RTVSPropertyOp43
 70
     1
102
RTVSPropertyOp44
 70
     1
102
RTVSPropertyOp45
 70
     1
102
RTVSPropertyOp46
 70
     1
102
RTVSPropertyOp47
 70
     1
102
RTVSPropertyOp48
 70
     1
102
RTVSPropertyOp49
 70
     1
102
RTVSPropertyOp50
 70
     1
102
RTVSPropertyOp51
 70
     0
102
RTVSPropertyOp52
 70
     0
102
RTVSPropertyOp53
 70
     1
102
RTVSPropertyOp54
 70
     1
102
RTVSPropertyOp55
 70
     1
102
RTVSPropertyOp56
 70
     1
102
RTVSPropertyOp57
 70
     1
102
RTVSPropertyOp58
 70
     1
102
RTVSPropertyOp59
 70
     1
102
RTVSPropertyOp60
 70
     1
102
RTVSPropertyOp61
 70
     1
102
RTVSPropertyOp62
 70
     1
  0
XRECORD
  5
886
102
{ACAD_REACTORS
330
885
102
}
330
885
100
AcDbXrecord
280
     1
102
RTVSPost2010Prop28
280
     0
102
RTVSPost2010PropOp28
 70
     1
102
RTVSPost2010Prop29
280
     1
102
RTVSPost2010PropOp29
 70
     1
102
RTVSPost2010Prop30
280
     1
102
RTVSPost2010PropOp30
 70
     1
102
RTVSPost2010Prop31
280
     0
102
RTVSPost2010PropOp31
 70
     1
102
RTVSPost2010Prop32
280
     0
102
RTVSPost2010PropOp32
 70
     1
102
RTVSPost2010Prop33
280
     0
102
RTVSPost2010PropOp33
 70
     1
102
RTVSPost2010Prop34
280
     0
102
RTVSPost2010PropOp34
 70
     1
102
RTVSPost2010Prop35
280
     0
102
RTVSPost2010PropOp35
 70
     1
102
RTVSPost2010Prop36
280
     0
102
RTVSPost2010PropOp36
 70
     1
102
RTVSPost2010Prop37
 90
       50
102
RTVSPost2010PropOp37
 70
     0
102
RTVSPost2010Prop38
140
0.0
102
RTVSPost2010PropOp38
 70
     0
102
RTVSPost2010Prop39
140
1.0
102
RTVSPost2010PropOp39
 70
     0
102
RTVSPost2010Prop40
 90
        0
102
RTVSPost2010PropOp40
 70
     0
102
RTVSPost2010Prop41ColorIndex
 90
       18
102
RTVSPost2010Prop41ColorRGB
 90
        0
102
RTVSPost2010PropOp41
 70
     0
102
RTVSPost2010Prop42
 90
       50
102
RTVSPost2010PropOp42
 70
     0
102
RTVSPost2010Prop43
 90
        3
102
RTVSPost2010PropOp43
 70
     0
102
RTVSPost2010Prop44ColorIndex
 90
        5
102
RTVSPost2010Prop44ColorRGB
 90
      255
102
RTVSPost2010PropOp44
 70
     0
102
RTVSPost2010Prop45
280
     0
102
RTVSPost2010PropOp45
 70
     1
102
RTVSPost2010Prop46
 90
       50
102
RTVSPost2010PropOp46
 70
     0
102
RTVSPost2010Prop47
 90
       50
102
RTVSPost2010PropOp47
 70
     0
102
RTVSPost2010Prop48
 90
       50
102
RTVSPost2010PropOp48
 70
     0
102
RTVSPost2010Prop49
280
     0
102
RTVSPost2010PropOp49
 70
     1
102
RTVSPost2010Prop50
 90
       50
102
RTVSPost2010PropOp50
 70
     0
102
RTVSPost2010Prop51ColorIndex
 90
      256
102
RTVSPost2010Prop51ColorRGB
 90
-16777216
102
RTVSPost2010PropOp51
 70
     0
102
RTVSPost2010Prop52
140
1.0
102
RTVSPost2010PropOp52
 70
     0
102
RTVSPost2010Prop53
 90
        2
102
RTVSPost2010PropOp53
 70
     0
102
RTVSPost2010Prop54
  1
strokes_ogs.tif
102
RTVSPost2010PropOp54
 70
     0
102
RTVSPost2010Prop55
280
     0
102
RTVSPost2010PropOp55
 70
     1
102
RTVSPost2010Prop56
140
1.0
102
RTVSPost2010PropOp56
 70
     0
102
RTVSPost2010Prop57
140
1.0
102
RTVSPost2010PropOp57
 70
     0
102
RTVSPropertyOp0
 70
     0
102
RTVSPropertyOp1
 70
     0
102
RTVSPropertyOp2
 70
     0
102
RTVSPropertyOp3
 70
     0
102
RTVSPropertyOp4
 70
     0
102
RTVSPropertyOp5
 70
     0
102
RTVSPropertyOp6
 70
     0
102
RTVSPropertyOp7
 70
     0
102
RTVSPropertyOp8
 70
     0
102
RTVSPropertyOp9
 70
     0
102
RTVSPropertyOp10
 70
     0
102
RTVSPropertyOp11
 70
     0
102
RTVSPropertyOp12
 70
     0
102
RTVSPropertyOp13
 70
     0
102
RTVSPropertyOp14
 70
     2
102
RTVSPropertyOp15
 70
     0
102
RTVSPropertyOp16
 70
     0
102
RTVSPropertyOp17
 70
     0
102
RTVSPropertyOp18
 70
     0
102
RTVSPropertyOp19
 70
     0
102
RTVSPropertyOp20
 70
     0
102
RTVSPropertyOp21
 70
     0
102
RTVSPropertyOp22
 70
     0
102
RTVSPropertyOp23
 70
     0
102
RTVSPropertyOp24
 70
     0
102
RTVSPropertyOp25
 70
     0
102
RTVSPropertyOp26
 70
     0
102
RTVSPropertyOp27
 70
     0
102
RTVSPropertyOp28
 70
     1
102
RTVSPropertyOp29
 70
     1
102
RTVSPropertyOp30
 70
     1
102
RTVSPropertyOp31
 70
     1
102
RTVSPropertyOp32
 70
     1
102
RTVSPropertyOp33
 70
     1
102
RTVSPropertyOp34
 70
     1
102
RTVSPropertyOp35
 70
     1
102
RTVSPropertyOp36
 70
     1
102
RTVSPropertyOp37
 70
     0
102
RTVSPropertyOp38
 70
     0
102
RTVSPropertyOp39
 70
     0
102
RTVSPropertyOp40
 70
     0
102
RTVSPropertyOp41
 70
     0
102
RTVSPropertyOp42
 70
     0
102
RTVSPropertyOp43
 70
     0
102
RTVSPropertyOp44
 70
     0
102
RTVSPropertyOp45
 70
     1
102
RTVSPropertyOp46
 70
     0
102
RTVSPropertyOp47
 70
     0
102
RTVSPropertyOp48
 70
     0
102
RTVSPropertyOp49
 70
     1
102
RTVSPropertyOp50
 70
     0
102
RTVSPropertyOp51
 70
     0
102
RTVSPropertyOp52
 70
     0
102
RTVSPropertyOp53
 70
     0
102
RTVSPropertyOp54
 70
     0
102
RTVSPropertyOp55
 70
     1
102
RTVSPropertyOp56
 70
     0
102
RTVSPropertyOp57
 70
     0
102
RTVSPropertyOp58
 70
     0
102
RTVSPropertyOp59
 70
     0
102
RTVSPropertyOp60
 70
     0
102
RTVSPropertyOp61
 70
     0
102
RTVSPropertyOp62
 70
     0
  0
XRECORD
  5
86C
102
{ACAD_REACTORS
330
86B
102
}
330
86B
100
AcDbXrecord
280
     1
102
RTVSPost2010Prop28
280
     0
102
RTVSPost2010PropOp28
 70
     1
102
RTVSPost2010Prop29
280
     1
102
RTVSPost2010PropOp29
 70
     1
102
RTVSPost2010Prop30
280
     1
102
RTVSPost2010PropOp30
 70
     1
102
RTVSPost2010Prop31
280
     0
102
RTVSPost2010PropOp31
 70
     1
102
RTVSPost2010Prop32
280
     0
102
RTVSPost2010PropOp32
 70
     1
102
RTVSPost2010Prop33
280
     0
102
RTVSPost2010PropOp33
 70
     1
102
RTVSPost2010Prop34
280
     0
102
RTVSPost2010PropOp34
 70
     1
102
RTVSPost2010Prop35
280
     0
102
RTVSPost2010PropOp35
 70
     1
102
RTVSPost2010Prop36
280
     0
102
RTVSPost2010PropOp36
 70
     1
102
RTVSPost2010Prop37
 90
       50
102
RTVSPost2010PropOp37
 70
     1
102
RTVSPost2010Prop38
140
0.0
102
RTVSPost2010PropOp38
 70
     1
102
RTVSPost2010Prop39
140
1.0
102
RTVSPost2010PropOp39
 70
     1
102
RTVSPost2010Prop40
 90
        0
102
RTVSPost2010PropOp40
 70
     1
102
RTVSPost2010Prop41ColorIndex
 90
       18
102
RTVSPost2010Prop41ColorRGB
 90
        0
102
RTVSPost2010PropOp41
 70
     1
102
RTVSPost2010Prop42
 90
       50
102
RTVSPost2010PropOp42
 70
     1
102
RTVSPost2010Prop43
 90
        3
102
RTVSPost2010PropOp43
 70
     1
102
RTVSPost2010Prop44ColorIndex
 90
        5
102
RTVSPost2010Prop44ColorRGB
 90
      255
102
RTVSPost2010PropOp44
 70
     1
102
RTVSPost2010Prop45
280
     0
102
RTVSPost2010PropOp45
 70
     1
102
RTVSPost2010Prop46
 90
       50
102
RTVSPost2010PropOp46
 70
     1
102
RTVSPost2010Prop47
 90
       50
102
RTVSPost2010PropOp47
 70
     1
102
RTVSPost2010Prop48
 90
       50
102
RTVSPost2010PropOp48
 70
     1
102
RTVSPost2010Prop49
280
     0
102
RTVSPost2010PropOp49
 70
     1
102
RTVSPost2010Prop50
 90
       50
102
RTVSPost2010PropOp50
 70
     1
102
RTVSPost2010Prop51ColorIndex
 90
      256
102
RTVSPost2010Prop51ColorRGB
 90
-16777216
102
RTVSPost2010PropOp51
 70
     0
102
RTVSPost2010Prop52
140
1.0
102
RTVSPost2010PropOp52
 70
     0
102
RTVSPost2010Prop53
 90
        2
102
RTVSPost2010PropOp53
 70
     1
102
RTVSPost2010Prop54
  1
strokes_ogs.tif
102
RTVSPost2010PropOp54
 70
     1
102
RTVSPost2010Prop55
280
     0
102
RTVSPost2010PropOp55
 70
     1
102
RTVSPost2010Prop56
140
1.0
102
RTVSPost2010PropOp56
 70
     1
102
RTVSPost2010Prop57
140
1.0
102
RTVSPost2010PropOp57
 70
     1
102
RTVSPropertyOp0
 70
     1
102
RTVSPropertyOp1
 70
     1
102
RTVSPropertyOp2
 70
     1
102
RTVSPropertyOp3
 70
     1
102
RTVSPropertyOp4
 70
     1
102
RTVSPropertyOp5
 70
     1
102
RTVSPropertyOp6
 70
     1
102
RTVSPropertyOp7
 70
     1
102
RTVSPropertyOp8
 70
     1
102
RTVSPropertyOp9
 70
     1
102
RTVSPropertyOp10
 70
     1
102
RTVSPropertyOp11
 70
     1
102
RTVSPropertyOp12
 70
     1
102
RTVSPropertyOp13
 70
     1
102
RTVSPropertyOp14
 70
     1
102
RTVSPropertyOp15
 70
     1
102
RTVSPropertyOp16
 70
     1
102
RTVSPropertyOp17
 70
     1
102
RTVSPropertyOp18
 70
     1
102
RTVSPropertyOp19
 70
     1
102
RTVSPropertyOp20
 70
     1
102
RTVSPropertyOp21
 70
     1
102
RTVSPropertyOp22
 70
     1
102
RTVSPropertyOp23
 70
     1
102
RTVSPropertyOp24
 70
     1
102
RTVSPropertyOp25
 70
     1
102
RTVSPropertyOp26
 70
     1
102
RTVSPropertyOp27
 70
     1
102
RTVSPropertyOp28
 70
     1
102
RTVSPropertyOp29
 70
     1
102
RTVSPropertyOp30
 70
     1
102
RTVSPropertyOp31
 70
     1
102
RTVSPropertyOp32
 70
     1
102
RTVSPropertyOp33
 70
     1
102
RTVSPropertyOp34
 70
     1
102
RTVSPropertyOp35
 70
     1
102
RTVSPropertyOp36
 70
     1
102
RTVSPropertyOp37
 70
     1
102
RTVSPropertyOp38
 70
     1
102
RTVSPropertyOp39
 70
     1
102
RTVSPropertyOp40
 70
     1
102
RTVSPropertyOp41
 70
     1
102
RTVSPropertyOp42
 70
     1
102
RTVSPropertyOp43
 70
     1
102
RTVSPropertyOp44
 70
     1
102
RTVSPropertyOp45
 70
     1
102
RTVSPropertyOp46
 70
     1
102
RTVSPropertyOp47
 70
     1
102
RTVSPropertyOp48
 70
     1
102
RTVSPropertyOp49
 70
     1
102
RTVSPropertyOp50
 70
     1
102
RTVSPropertyOp51
 70
     0
102
RTVSPropertyOp52
 70
     0
102
RTVSPropertyOp53
 70
     1
102
RTVSPropertyOp54
 70
     1
102
RTVSPropertyOp55
 70
     1
102
RTVSPropertyOp56
 70
     1
102
RTVSPropertyOp57
 70
     1
102
RTVSPropertyOp58
 70
     1
102
RTVSPropertyOp59
 70
     1
102
RTVSPropertyOp60
 70
     1
102
RTVSPropertyOp61
 70
     1
102
RTVSPropertyOp62
 70
     1
  0
XRECORD
  5
882
102
{ACAD_REACTORS
330
881
102
}
330
881
100
AcDbXrecord
280
     1
102
RTVSPost2010Prop28
280
     0
102
RTVSPost2010PropOp28
 70
     1
102
RTVSPost2010Prop29
280
     1
102
RTVSPost2010PropOp29
 70
     1
102
RTVSPost2010Prop30
280
     1
102
RTVSPost2010PropOp30
 70
     1
102
RTVSPost2010Prop31
280
     0
102
RTVSPost2010PropOp31
 70
     1
102
RTVSPost2010Prop32
280
     0
102
RTVSPost2010PropOp32
 70
     1
102
RTVSPost2010Prop33
280
     0
102
RTVSPost2010PropOp33
 70
     1
102
RTVSPost2010Prop34
280
     0
102
RTVSPost2010PropOp34
 70
     1
102
RTVSPost2010Prop35
280
     0
102
RTVSPost2010PropOp35
 70
     1
102
RTVSPost2010Prop36
280
     0
102
RTVSPost2010PropOp36
 70
     1
102
RTVSPost2010Prop37
 90
       50
102
RTVSPost2010PropOp37
 70
     1
102
RTVSPost2010Prop38
140
0.0
102
RTVSPost2010PropOp38
 70
     1
102
RTVSPost2010Prop39
140
1.0
102
RTVSPost2010PropOp39
 70
     1
102
RTVSPost2010Prop40
 90
        0
102
RTVSPost2010PropOp40
 70
     1
102
RTVSPost2010Prop41ColorIndex
 90
       18
102
RTVSPost2010Prop41ColorRGB
 90
        0
102
RTVSPost2010PropOp41
 70
     1
102
RTVSPost2010Prop42
 90
       50
102
RTVSPost2010PropOp42
 70
     1
102
RTVSPost2010Prop43
 90
        3
102
RTVSPost2010PropOp43
 70
     1
102
RTVSPost2010Prop44ColorIndex
 90
        5
102
RTVSPost2010Prop44ColorRGB
 90
      255
102
RTVSPost2010PropOp44
 70
     1
102
RTVSPost2010Prop45
280
     0
102
RTVSPost2010PropOp45
 70
     1
102
RTVSPost2010Prop46
 90
       50
102
RTVSPost2010PropOp46
 70
     1
102
RTVSPost2010Prop47
 90
       50
102
RTVSPost2010PropOp47
 70
     1
102
RTVSPost2010Prop48
 90
       50
102
RTVSPost2010PropOp48
 70
     1
102
RTVSPost2010Prop49
280
     0
102
RTVSPost2010PropOp49
 70
     1
102
RTVSPost2010Prop50
 90
       50
102
RTVSPost2010PropOp50
 70
     1
102
RTVSPost2010Prop51ColorIndex
 90
      256
102
RTVSPost2010Prop51ColorRGB
 90
-16777216
102
RTVSPost2010PropOp51
 70
     0
102
RTVSPost2010Prop52
140
1.0
102
RTVSPost2010PropOp52
 70
     0
102
RTVSPost2010Prop53
 90
        2
102
RTVSPost2010PropOp53
 70
     1
102
RTVSPost2010Prop54
  1
strokes_ogs.tif
102
RTVSPost2010PropOp54
 70
     1
102
RTVSPost2010Prop55
280
     0
102
RTVSPost2010PropOp55
 70
     1
102
RTVSPost2010Prop56
140
1.0
102
RTVSPost2010PropOp56
 70
     1
102
RTVSPost2010Prop57
140
1.0
102
RTVSPost2010PropOp57
 70
     1
102
RTVSPropertyOp0
 70
     1
102
RTVSPropertyOp1
 70
     1
102
RTVSPropertyOp2
 70
     1
102
RTVSPropertyOp3
 70
     1
102
RTVSPropertyOp4
 70
     1
102
RTVSPropertyOp5
 70
     1
102
RTVSPropertyOp6
 70
     1
102
RTVSPropertyOp7
 70
     1
102
RTVSPropertyOp8
 70
     1
102
RTVSPropertyOp9
 70
     1
102
RTVSPropertyOp10
 70
     1
102
RTVSPropertyOp11
 70
     1
102
RTVSPropertyOp12
 70
     1
102
RTVSPropertyOp13
 70
     1
102
RTVSPropertyOp14
 70
     1
102
RTVSPropertyOp15
 70
     1
102
RTVSPropertyOp16
 70
     1
102
RTVSPropertyOp17
 70
     1
102
RTVSPropertyOp18
 70
     1
102
RTVSPropertyOp19
 70
     1
102
RTVSPropertyOp20
 70
     1
102
RTVSPropertyOp21
 70
     1
102
RTVSPropertyOp22
 70
     1
102
RTVSPropertyOp23
 70
     1
102
RTVSPropertyOp24
 70
     1
102
RTVSPropertyOp25
 70
     1
102
RTVSPropertyOp26
 70
     1
102
RTVSPropertyOp27
 70
     1
102
RTVSPropertyOp28
 70
     1
102
RTVSPropertyOp29
 70
     1
102
RTVSPropertyOp30
 70
     1
102
RTVSPropertyOp31
 70
     1
102
RTVSPropertyOp32
 70
     1
102
RTVSPropertyOp33
 70
     1
102
RTVSPropertyOp34
 70
     1
102
RTVSPropertyOp35
 70
     1
102
RTVSPropertyOp36
 70
     1
102
RTVSPropertyOp37
 70
     1
102
RTVSPropertyOp38
 70
     1
102
RTVSPropertyOp39
 70
     1
102
RTVSPropertyOp40
 70
     1
102
RTVSPropertyOp41
 70
     1
102
RTVSPropertyOp42
 70
     1
102
RTVSPropertyOp43
 70
     1
102
RTVSPropertyOp44
 70
     1
102
RTVSPropertyOp45
 70
     1
102
RTVSPropertyOp46
 70
     1
102
RTVSPropertyOp47
 70
     1
102
RTVSPropertyOp48
 70
     1
102
RTVSPropertyOp49
 70
     1
102
RTVSPropertyOp50
 70
     1
102
RTVSPropertyOp51
 70
     0
102
RTVSPropertyOp52
 70
     0
102
RTVSPropertyOp53
 70
     1
102
RTVSPropertyOp54
 70
     1
102
RTVSPropertyOp55
 70
     1
102
RTVSPropertyOp56
 70
     1
102
RTVSPropertyOp57
 70
     1
102
RTVSPropertyOp58
 70
     1
102
RTVSPropertyOp59
 70
     1
102
RTVSPropertyOp60
 70
     1
102
RTVSPropertyOp61
 70
     1
102
RTVSPropertyOp62
 70
     1
  0
XRECORD
  5
880
102
{ACAD_REACTORS
330
87F
102
}
330
87F
100
AcDbXrecord
280
     1
102
RTVSPost2010Prop28
280
     0
102
RTVSPost2010PropOp28
 70
     1
102
RTVSPost2010Prop29
280
     1
102
RTVSPost2010PropOp29
 70
     1
102
RTVSPost2010Prop30
280
     1
102
RTVSPost2010PropOp30
 70
     1
102
RTVSPost2010Prop31
280
     0
102
RTVSPost2010PropOp31
 70
     1
102
RTVSPost2010Prop32
280
     0
102
RTVSPost2010PropOp32
 70
     1
102
RTVSPost2010Prop33
280
     0
102
RTVSPost2010PropOp33
 70
     1
102
RTVSPost2010Prop34
280
     0
102
RTVSPost2010PropOp34
 70
     1
102
RTVSPost2010Prop35
280
     0
102
RTVSPost2010PropOp35
 70
     1
102
RTVSPost2010Prop36
280
     0
102
RTVSPost2010PropOp36
 70
     1
102
RTVSPost2010Prop37
 90
       50
102
RTVSPost2010PropOp37
 70
     1
102
RTVSPost2010Prop38
140
0.0
102
RTVSPost2010PropOp38
 70
     1
102
RTVSPost2010Prop39
140
1.0
102
RTVSPost2010PropOp39
 70
     1
102
RTVSPost2010Prop40
 90
        0
102
RTVSPost2010PropOp40
 70
     1
102
RTVSPost2010Prop41ColorIndex
 90
       18
102
RTVSPost2010Prop41ColorRGB
 90
        0
102
RTVSPost2010PropOp41
 70
     1
102
RTVSPost2010Prop42
 90
       50
102
RTVSPost2010PropOp42
 70
     1
102
RTVSPost2010Prop43
 90
        3
102
RTVSPost2010PropOp43
 70
     1
102
RTVSPost2010Prop44ColorIndex
 90
        5
102
RTVSPost2010Prop44ColorRGB
 90
      255
102
RTVSPost2010PropOp44
 70
     1
102
RTVSPost2010Prop45
280
     0
102
RTVSPost2010PropOp45
 70
     1
102
RTVSPost2010Prop46
 90
       50
102
RTVSPost2010PropOp46
 70
     1
102
RTVSPost2010Prop47
 90
       50
102
RTVSPost2010PropOp47
 70
     1
102
RTVSPost2010Prop48
 90
       50
102
RTVSPost2010PropOp48
 70
     1
102
RTVSPost2010Prop49
280
     0
102
RTVSPost2010PropOp49
 70
     1
102
RTVSPost2010Prop50
 90
       50
102
RTVSPost2010PropOp50
 70
     1
102
RTVSPost2010Prop51ColorIndex
 90
      256
102
RTVSPost2010Prop51ColorRGB
 90
-16777216
102
RTVSPost2010PropOp51
 70
     0
102
RTVSPost2010Prop52
140
1.0
102
RTVSPost2010PropOp52
 70
     0
102
RTVSPost2010Prop53
 90
        2
102
RTVSPost2010PropOp53
 70
     1
102
RTVSPost2010Prop54
  1
strokes_ogs.tif
102
RTVSPost2010PropOp54
 70
     1
102
RTVSPost2010Prop55
280
     0
102
RTVSPost2010PropOp55
 70
     1
102
RTVSPost2010Prop56
140
1.0
102
RTVSPost2010PropOp56
 70
     1
102
RTVSPost2010Prop57
140
1.0
102
RTVSPost2010PropOp57
 70
     1
102
RTVSPropertyOp0
 70
     1
102
RTVSPropertyOp1
 70
     1
102
RTVSPropertyOp2
 70
     1
102
RTVSPropertyOp3
 70
     1
102
RTVSPropertyOp4
 70
     1
102
RTVSPropertyOp5
 70
     1
102
RTVSPropertyOp6
 70
     1
102
RTVSPropertyOp7
 70
     1
102
RTVSPropertyOp8
 70
     1
102
RTVSPropertyOp9
 70
     1
102
RTVSPropertyOp10
 70
     1
102
RTVSPropertyOp11
 70
     1
102
RTVSPropertyOp12
 70
     1
102
RTVSPropertyOp13
 70
     1
102
RTVSPropertyOp14
 70
     1
102
RTVSPropertyOp15
 70
     1
102
RTVSPropertyOp16
 70
     1
102
RTVSPropertyOp17
 70
     1
102
RTVSPropertyOp18
 70
     1
102
RTVSPropertyOp19
 70
     1
102
RTVSPropertyOp20
 70
     1
102
RTVSPropertyOp21
 70
     1
102
RTVSPropertyOp22
 70
     1
102
RTVSPropertyOp23
 70
     1
102
RTVSPropertyOp24
 70
     1
102
RTVSPropertyOp25
 70
     1
102
RTVSPropertyOp26
 70
     1
102
RTVSPropertyOp27
 70
     1
102
RTVSPropertyOp28
 70
     1
102
RTVSPropertyOp29
 70
     1
102
RTVSPropertyOp30
 70
     1
102
RTVSPropertyOp31
 70
     1
102
RTVSPropertyOp32
 70
     1
102
RTVSPropertyOp33
 70
     1
102
RTVSPropertyOp34
 70
     1
102
RTVSPropertyOp35
 70
     1
102
RTVSPropertyOp36
 70
     1
102
RTVSPropertyOp37
 70
     1
102
RTVSPropertyOp38
 70
     1
102
RTVSPropertyOp39
 70
     1
102
RTVSPropertyOp40
 70
     1
102
RTVSPropertyOp41
 70
     1
102
RTVSPropertyOp42
 70
     1
102
RTVSPropertyOp43
 70
     1
102
RTVSPropertyOp44
 70
     1
102
RTVSPropertyOp45
 70
     1
102
RTVSPropertyOp46
 70
     1
102
RTVSPropertyOp47
 70
     1
102
RTVSPropertyOp48
 70
     1
102
RTVSPropertyOp49
 70
     1
102
RTVSPropertyOp50
 70
     1
102
RTVSPropertyOp51
 70
     0
102
RTVSPropertyOp52
 70
     0
102
RTVSPropertyOp53
 70
     1
102
RTVSPropertyOp54
 70
     1
102
RTVSPropertyOp55
 70
     1
102
RTVSPropertyOp56
 70
     1
102
RTVSPropertyOp57
 70
     1
102
RTVSPropertyOp58
 70
     1
102
RTVSPropertyOp59
 70
     1
102
RTVSPropertyOp60
 70
     1
102
RTVSPropertyOp61
 70
     1
102
RTVSPropertyOp62
 70
     1
  0
XRECORD
  5
87A
102
{ACAD_REACTORS
330
879
102
}
330
879
100
AcDbXrecord
280
     1
102
RTVSPost2010Prop28
280
     0
102
RTVSPost2010PropOp28
 70
     1
102
RTVSPost2010Prop29
280
     1
102
RTVSPost2010PropOp29
 70
     1
102
RTVSPost2010Prop30
280
     1
102
RTVSPost2010PropOp30
 70
     1
102
RTVSPost2010Prop31
280
     0
102
RTVSPost2010PropOp31
 70
     1
102
RTVSPost2010Prop32
280
     0
102
RTVSPost2010PropOp32
 70
     1
102
RTVSPost2010Prop33
280
     0
102
RTVSPost2010PropOp33
 70
     1
102
RTVSPost2010Prop34
280
     0
102
RTVSPost2010PropOp34
 70
     1
102
RTVSPost2010Prop35
280
     0
102
RTVSPost2010PropOp35
 70
     1
102
RTVSPost2010Prop36
280
     0
102
RTVSPost2010PropOp36
 70
     1
102
RTVSPost2010Prop37
 90
       50
102
RTVSPost2010PropOp37
 70
     1
102
RTVSPost2010Prop38
140
0.0
102
RTVSPost2010PropOp38
 70
     1
102
RTVSPost2010Prop39
140
1.0
102
RTVSPost2010PropOp39
 70
     1
102
RTVSPost2010Prop40
 90
        0
102
RTVSPost2010PropOp40
 70
     1
102
RTVSPost2010Prop41ColorIndex
 90
       18
102
RTVSPost2010Prop41ColorRGB
 90
        0
102
RTVSPost2010PropOp41
 70
     1
102
RTVSPost2010Prop42
 90
       50
102
RTVSPost2010PropOp42
 70
     1
102
RTVSPost2010Prop43
 90
        3
102
RTVSPost2010PropOp43
 70
     1
102
RTVSPost2010Prop44ColorIndex
 90
        5
102
RTVSPost2010Prop44ColorRGB
 90
      255
102
RTVSPost2010PropOp44
 70
     1
102
RTVSPost2010Prop45
280
     0
102
RTVSPost2010PropOp45
 70
     1
102
RTVSPost2010Prop46
 90
       50
102
RTVSPost2010PropOp46
 70
     1
102
RTVSPost2010Prop47
 90
       50
102
RTVSPost2010PropOp47
 70
     1
102
RTVSPost2010Prop48
 90
       50
102
RTVSPost2010PropOp48
 70
     1
102
RTVSPost2010Prop49
280
     0
102
RTVSPost2010PropOp49
 70
     1
102
RTVSPost2010Prop50
 90
       50
102
RTVSPost2010PropOp50
 70
     1
102
RTVSPost2010Prop51ColorIndex
 90
      256
102
RTVSPost2010Prop51ColorRGB
 90
-16777216
102
RTVSPost2010PropOp51
 70
     0
102
RTVSPost2010Prop52
140
1.0
102
RTVSPost2010PropOp52
 70
     0
102
RTVSPost2010Prop53
 90
        2
102
RTVSPost2010PropOp53
 70
     1
102
RTVSPost2010Prop54
  1
strokes_ogs.tif
102
RTVSPost2010PropOp54
 70
     1
102
RTVSPost2010Prop55
280
     0
102
RTVSPost2010PropOp55
 70
     1
102
RTVSPost2010Prop56
140
1.0
102
RTVSPost2010PropOp56
 70
     1
102
RTVSPost2010Prop57
140
1.0
102
RTVSPost2010PropOp57
 70
     1
102
RTVSPropertyOp0
 70
     1
102
RTVSPropertyOp1
 70
     1
102
RTVSPropertyOp2
 70
     1
102
RTVSPropertyOp3
 70
     1
102
RTVSPropertyOp4
 70
     1
102
RTVSPropertyOp5
 70
     1
102
RTVSPropertyOp6
 70
     1
102
RTVSPropertyOp7
 70
     1
102
RTVSPropertyOp8
 70
     1
102
RTVSPropertyOp9
 70
     1
102
RTVSPropertyOp10
 70
     1
102
RTVSPropertyOp11
 70
     1
102
RTVSPropertyOp12
 70
     1
102
RTVSPropertyOp13
 70
     1
102
RTVSPropertyOp14
 70
     1
102
RTVSPropertyOp15
 70
     1
102
RTVSPropertyOp16
 70
     1
102
RTVSPropertyOp17
 70
     1
102
RTVSPropertyOp18
 70
     1
102
RTVSPropertyOp19
 70
     1
102
RTVSPropertyOp20
 70
     1
102
RTVSPropertyOp21
 70
     1
102
RTVSPropertyOp22
 70
     1
102
RTVSPropertyOp23
 70
     1
102
RTVSPropertyOp24
 70
     1
102
RTVSPropertyOp25
 70
     1
102
RTVSPropertyOp26
 70
     1
102
RTVSPropertyOp27
 70
     1
102
RTVSPropertyOp28
 70
     1
102
RTVSPropertyOp29
 70
     1
102
RTVSPropertyOp30
 70
     1
102
RTVSPropertyOp31
 70
     1
102
RTVSPropertyOp32
 70
     1
102
RTVSPropertyOp33
 70
     1
102
RTVSPropertyOp34
 70
     1
102
RTVSPropertyOp35
 70
     1
102
RTVSPropertyOp36
 70
     1
102
RTVSPropertyOp37
 70
     1
102
RTVSPropertyOp38
 70
     1
102
RTVSPropertyOp39
 70
     1
102
RTVSPropertyOp40
 70
     1
102
RTVSPropertyOp41
 70
     1
102
RTVSPropertyOp42
 70
     1
102
RTVSPropertyOp43
 70
     1
102
RTVSPropertyOp44
 70
     1
102
RTVSPropertyOp45
 70
     1
102
RTVSPropertyOp46
 70
     1
102
RTVSPropertyOp47
 70
     1
102
RTVSPropertyOp48
 70
     1
102
RTVSPropertyOp49
 70
     1
102
RTVSPropertyOp50
 70
     1
102
RTVSPropertyOp51
 70
     0
102
RTVSPropertyOp52
 70
     0
102
RTVSPropertyOp53
 70
     1
102
RTVSPropertyOp54
 70
     1
102
RTVSPropertyOp55
 70
     1
102
RTVSPropertyOp56
 70
     1
102
RTVSPropertyOp57
 70
     1
102
RTVSPropertyOp58
 70
     1
102
RTVSPropertyOp59
 70
     1
102
RTVSPropertyOp60
 70
     1
102
RTVSPropertyOp61
 70
     1
102
RTVSPropertyOp62
 70
     1
  0
XRECORD
  5
87C
102
{ACAD_REACTORS
330
87B
102
}
330
87B
100
AcDbXrecord
280
     1
102
RTVSPost2010Prop28
280
     0
102
RTVSPost2010PropOp28
 70
     1
102
RTVSPost2010Prop29
280
     1
102
RTVSPost2010PropOp29
 70
     1
102
RTVSPost2010Prop30
280
     1
102
RTVSPost2010PropOp30
 70
     1
102
RTVSPost2010Prop31
280
     0
102
RTVSPost2010PropOp31
 70
     1
102
RTVSPost2010Prop32
280
     0
102
RTVSPost2010PropOp32
 70
     1
102
RTVSPost2010Prop33
280
     0
102
RTVSPost2010PropOp33
 70
     1
102
RTVSPost2010Prop34
280
     0
102
RTVSPost2010PropOp34
 70
     1
102
RTVSPost2010Prop35
280
     0
102
RTVSPost2010PropOp35
 70
     1
102
RTVSPost2010Prop36
280
     0
102
RTVSPost2010PropOp36
 70
     1
102
RTVSPost2010Prop37
 90
       50
102
RTVSPost2010PropOp37
 70
     1
102
RTVSPost2010Prop38
140
0.0
102
RTVSPost2010PropOp38
 70
     1
102
RTVSPost2010Prop39
140
1.0
102
RTVSPost2010PropOp39
 70
     1
102
RTVSPost2010Prop40
 90
        0
102
RTVSPost2010PropOp40
 70
     1
102
RTVSPost2010Prop41ColorIndex
 90
       18
102
RTVSPost2010Prop41ColorRGB
 90
        0
102
RTVSPost2010PropOp41
 70
     1
102
RTVSPost2010Prop42
 90
       50
102
RTVSPost2010PropOp42
 70
     1
102
RTVSPost2010Prop43
 90
        3
102
RTVSPost2010PropOp43
 70
     1
102
RTVSPost2010Prop44ColorIndex
 90
        5
102
RTVSPost2010Prop44ColorRGB
 90
      255
102
RTVSPost2010PropOp44
 70
     1
102
RTVSPost2010Prop45
280
     0
102
RTVSPost2010PropOp45
 70
     1
102
RTVSPost2010Prop46
 90
       50
102
RTVSPost2010PropOp46
 70
     1
102
RTVSPost2010Prop47
 90
       50
102
RTVSPost2010PropOp47
 70
     1
102
RTVSPost2010Prop48
 90
       50
102
RTVSPost2010PropOp48
 70
     1
102
RTVSPost2010Prop49
280
     0
102
RTVSPost2010PropOp49
 70
     1
102
RTVSPost2010Prop50
 90
       50
102
RTVSPost2010PropOp50
 70
     1
102
RTVSPost2010Prop51ColorIndex
 90
      256
102
RTVSPost2010Prop51ColorRGB
 90
-16777216
102
RTVSPost2010PropOp51
 70
     0
102
RTVSPost2010Prop52
140
1.0
102
RTVSPost2010PropOp52
 70
     0
102
RTVSPost2010Prop53
 90
        2
102
RTVSPost2010PropOp53
 70
     1
102
RTVSPost2010Prop54
  1
strokes_ogs.tif
102
RTVSPost2010PropOp54
 70
     1
102
RTVSPost2010Prop55
280
     0
102
RTVSPost2010PropOp55
 70
     1
102
RTVSPost2010Prop56
140
1.0
102
RTVSPost2010PropOp56
 70
     1
102
RTVSPost2010Prop57
140
1.0
102
RTVSPost2010PropOp57
 70
     1
102
RTVSPropertyOp0
 70
     1
102
RTVSPropertyOp1
 70
     1
102
RTVSPropertyOp2
 70
     1
102
RTVSPropertyOp3
 70
     1
102
RTVSPropertyOp4
 70
     1
102
RTVSPropertyOp5
 70
     1
102
RTVSPropertyOp6
 70
     1
102
RTVSPropertyOp7
 70
     1
102
RTVSPropertyOp8
 70
     1
102
RTVSPropertyOp9
 70
     1
102
RTVSPropertyOp10
 70
     1
102
RTVSPropertyOp11
 70
     1
102
RTVSPropertyOp12
 70
     1
102
RTVSPropertyOp13
 70
     1
102
RTVSPropertyOp14
 70
     1
102
RTVSPropertyOp15
 70
     1
102
RTVSPropertyOp16
 70
     1
102
RTVSPropertyOp17
 70
     1
102
RTVSPropertyOp18
 70
     1
102
RTVSPropertyOp19
 70
     1
102
RTVSPropertyOp20
 70
     1
102
RTVSPropertyOp21
 70
     1
102
RTVSPropertyOp22
 70
     1
102
RTVSPropertyOp23
 70
     1
102
RTVSPropertyOp24
 70
     1
102
RTVSPropertyOp25
 70
     1
102
RTVSPropertyOp26
 70
     1
102
RTVSPropertyOp27
 70
     1
102
RTVSPropertyOp28
 70
     1
102
RTVSPropertyOp29
 70
     1
102
RTVSPropertyOp30
 70
     1
102
RTVSPropertyOp31
 70
     1
102
RTVSPropertyOp32
 70
     1
102
RTVSPropertyOp33
 70
     1
102
RTVSPropertyOp34
 70
     1
102
RTVSPropertyOp35
 70
     1
102
RTVSPropertyOp36
 70
     1
102
RTVSPropertyOp37
 70
     1
102
RTVSPropertyOp38
 70
     1
102
RTVSPropertyOp39
 70
     1
102
RTVSPropertyOp40
 70
     1
102
RTVSPropertyOp41
 70
     1
102
RTVSPropertyOp42
 70
     1
102
RTVSPropertyOp43
 70
     1
102
RTVSPropertyOp44
 70
     1
102
RTVSPropertyOp45
 70
     1
102
RTVSPropertyOp46
 70
     1
102
RTVSPropertyOp47
 70
     1
102
RTVSPropertyOp48
 70
     1
102
RTVSPropertyOp49
 70
     1
102
RTVSPropertyOp50
 70
     1
102
RTVSPropertyOp51
 70
     0
102
RTVSPropertyOp52
 70
     0
102
RTVSPropertyOp53
 70
     1
102
RTVSPropertyOp54
 70
     1
102
RTVSPropertyOp55
 70
     1
102
RTVSPropertyOp56
 70
     1
102
RTVSPropertyOp57
 70
     1
102
RTVSPropertyOp58
 70
     1
102
RTVSPropertyOp59
 70
     1
102
RTVSPropertyOp60
 70
     1
102
RTVSPropertyOp61
 70
     1
102
RTVSPropertyOp62
 70
     1
  0
XRECORD
  5
872
102
{ACAD_REACTORS
330
871
102
}
330
871
100
AcDbXrecord
280
     1
102
RTVSPost2010Prop28
280
     0
102
RTVSPost2010PropOp28
 70
     1
102
RTVSPost2010Prop29
280
     1
102
RTVSPost2010PropOp29
 70
     1
102
RTVSPost2010Prop30
280
     1
102
RTVSPost2010PropOp30
 70
     1
102
RTVSPost2010Prop31
280
     0
102
RTVSPost2010PropOp31
 70
     1
102
RTVSPost2010Prop32
280
     0
102
RTVSPost2010PropOp32
 70
     1
102
RTVSPost2010Prop33
280
     0
102
RTVSPost2010PropOp33
 70
     1
102
RTVSPost2010Prop34
280
     0
102
RTVSPost2010PropOp34
 70
     1
102
RTVSPost2010Prop35
280
     0
102
RTVSPost2010PropOp35
 70
     1
102
RTVSPost2010Prop36
280
     0
102
RTVSPost2010PropOp36
 70
     1
102
RTVSPost2010Prop37
 90
       50
102
RTVSPost2010PropOp37
 70
     1
102
RTVSPost2010Prop38
140
0.0
102
RTVSPost2010PropOp38
 70
     1
102
RTVSPost2010Prop39
140
1.0
102
RTVSPost2010PropOp39
 70
     1
102
RTVSPost2010Prop40
 90
        0
102
RTVSPost2010PropOp40
 70
     1
102
RTVSPost2010Prop41ColorIndex
 90
       18
102
RTVSPost2010Prop41ColorRGB
 90
        0
102
RTVSPost2010PropOp41
 70
     1
102
RTVSPost2010Prop42
 90
       50
102
RTVSPost2010PropOp42
 70
     1
102
RTVSPost2010Prop43
 90
        3
102
RTVSPost2010PropOp43
 70
     1
102
RTVSPost2010Prop44ColorIndex
 90
        5
102
RTVSPost2010Prop44ColorRGB
 90
      255
102
RTVSPost2010PropOp44
 70
     1
102
RTVSPost2010Prop45
280
     0
102
RTVSPost2010PropOp45
 70
     1
102
RTVSPost2010Prop46
 90
       50
102
RTVSPost2010PropOp46
 70
     1
102
RTVSPost2010Prop47
 90
       50
102
RTVSPost2010PropOp47
 70
     1
102
RTVSPost2010Prop48
 90
       50
102
RTVSPost2010PropOp48
 70
     1
102
RTVSPost2010Prop49
280
     0
102
RTVSPost2010PropOp49
 70
     1
102
RTVSPost2010Prop50
 90
       50
102
RTVSPost2010PropOp50
 70
     1
102
RTVSPost2010Prop51ColorIndex
 90
      256
102
RTVSPost2010Prop51ColorRGB
 90
-16777216
102
RTVSPost2010PropOp51
 70
     0
102
RTVSPost2010Prop52
140
1.0
102
RTVSPost2010PropOp52
 70
     0
102
RTVSPost2010Prop53
 90
        2
102
RTVSPost2010PropOp53
 70
     1
102
RTVSPost2010Prop54
  1
strokes_ogs.tif
102
RTVSPost2010PropOp54
 70
     1
102
RTVSPost2010Prop55
280
     0
102
RTVSPost2010PropOp55
 70
     1
102
RTVSPost2010Prop56
140
1.0
102
RTVSPost2010PropOp56
 70
     1
102
RTVSPost2010Prop57
140
1.0
102
RTVSPost2010PropOp57
 70
     1
102
RTVSPropertyOp0
 70
     1
102
RTVSPropertyOp1
 70
     1
102
RTVSPropertyOp2
 70
     1
102
RTVSPropertyOp3
 70
     1
102
RTVSPropertyOp4
 70
     1
102
RTVSPropertyOp5
 70
     1
102
RTVSPropertyOp6
 70
     1
102
RTVSPropertyOp7
 70
     1
102
RTVSPropertyOp8
 70
     1
102
RTVSPropertyOp9
 70
     1
102
RTVSPropertyOp10
 70
     1
102
RTVSPropertyOp11
 70
     1
102
RTVSPropertyOp12
 70
     1
102
RTVSPropertyOp13
 70
     1
102
RTVSPropertyOp14
 70
     1
102
RTVSPropertyOp15
 70
     1
102
RTVSPropertyOp16
 70
     1
102
RTVSPropertyOp17
 70
     1
102
RTVSPropertyOp18
 70
     1
102
RTVSPropertyOp19
 70
     1
102
RTVSPropertyOp20
 70
     1
102
RTVSPropertyOp21
 70
     1
102
RTVSPropertyOp22
 70
     1
102
RTVSPropertyOp23
 70
     1
102
RTVSPropertyOp24
 70
     1
102
RTVSPropertyOp25
 70
     1
102
RTVSPropertyOp26
 70
     1
102
RTVSPropertyOp27
 70
     1
102
RTVSPropertyOp28
 70
     1
102
RTVSPropertyOp29
 70
     1
102
RTVSPropertyOp30
 70
     1
102
RTVSPropertyOp31
 70
     1
102
RTVSPropertyOp32
 70
     1
102
RTVSPropertyOp33
 70
     1
102
RTVSPropertyOp34
 70
     1
102
RTVSPropertyOp35
 70
     1
102
RTVSPropertyOp36
 70
     1
102
RTVSPropertyOp37
 70
     1
102
RTVSPropertyOp38
 70
     1
102
RTVSPropertyOp39
 70
     1
102
RTVSPropertyOp40
 70
     1
102
RTVSPropertyOp41
 70
     1
102
RTVSPropertyOp42
 70
     1
102
RTVSPropertyOp43
 70
     1
102
RTVSPropertyOp44
 70
     1
102
RTVSPropertyOp45
 70
     1
102
RTVSPropertyOp46
 70
     1
102
RTVSPropertyOp47
 70
     1
102
RTVSPropertyOp48
 70
     1
102
RTVSPropertyOp49
 70
     1
102
RTVSPropertyOp50
 70
     1
102
RTVSPropertyOp51
 70
     0
102
RTVSPropertyOp52
 70
     0
102
RTVSPropertyOp53
 70
     1
102
RTVSPropertyOp54
 70
     1
102
RTVSPropertyOp55
 70
     1
102
RTVSPropertyOp56
 70
     1
102
RTVSPropertyOp57
 70
     1
102
RTVSPropertyOp58
 70
     1
102
RTVSPropertyOp59
 70
     1
102
RTVSPropertyOp60
 70
     1
102
RTVSPropertyOp61
 70
     1
102
RTVSPropertyOp62
 70
     1
  0
XRECORD
  5
866
102
{ACAD_REACTORS
330
865
102
}
330
865
100
AcDbXrecord
280
     1
102
RTVSPost2010Prop28
280
     0
102
RTVSPost2010PropOp28
 70
     1
102
RTVSPost2010Prop29
280
     1
102
RTVSPost2010PropOp29
 70
     1
102
RTVSPost2010Prop30
280
     1
102
RTVSPost2010PropOp30
 70
     1
102
RTVSPost2010Prop31
280
     0
102
RTVSPost2010PropOp31
 70
     1
102
RTVSPost2010Prop32
280
     0
102
RTVSPost2010PropOp32
 70
     1
102
RTVSPost2010Prop33
280
     0
102
RTVSPost2010PropOp33
 70
     1
102
RTVSPost2010Prop34
280
     0
102
RTVSPost2010PropOp34
 70
     1
102
RTVSPost2010Prop35
280
     0
102
RTVSPost2010PropOp35
 70
     1
102
RTVSPost2010Prop36
280
     0
102
RTVSPost2010PropOp36
 70
     1
102
RTVSPost2010Prop37
 90
       50
102
RTVSPost2010PropOp37
 70
     1
102
RTVSPost2010Prop38
140
0.0
102
RTVSPost2010PropOp38
 70
     1
102
RTVSPost2010Prop39
140
1.0
102
RTVSPost2010PropOp39
 70
     1
102
RTVSPost2010Prop40
 90
        0
102
RTVSPost2010PropOp40
 70
     1
102
RTVSPost2010Prop41ColorIndex
 90
       18
102
RTVSPost2010Prop41ColorRGB
 90
        0
102
RTVSPost2010PropOp41
 70
     1
102
RTVSPost2010Prop42
 90
       50
102
RTVSPost2010PropOp42
 70
     1
102
RTVSPost2010Prop43
 90
        3
102
RTVSPost2010PropOp43
 70
     1
102
RTVSPost2010Prop44ColorIndex
 90
        5
102
RTVSPost2010Prop44ColorRGB
 90
      255
102
RTVSPost2010PropOp44
 70
     1
102
RTVSPost2010Prop45
280
     0
102
RTVSPost2010PropOp45
 70
     1
102
RTVSPost2010Prop46
 90
       50
102
RTVSPost2010PropOp46
 70
     1
102
RTVSPost2010Prop47
 90
       50
102
RTVSPost2010PropOp47
 70
     1
102
RTVSPost2010Prop48
 90
       50
102
RTVSPost2010PropOp48
 70
     1
102
RTVSPost2010Prop49
280
     0
102
RTVSPost2010PropOp49
 70
     1
102
RTVSPost2010Prop50
 90
       50
102
RTVSPost2010PropOp50
 70
     1
102
RTVSPost2010Prop51ColorIndex
 90
      256
102
RTVSPost2010Prop51ColorRGB
 90
-16777216
102
RTVSPost2010PropOp51
 70
     0
102
RTVSPost2010Prop52
140
1.0
102
RTVSPost2010PropOp52
 70
     0
102
RTVSPost2010Prop53
 90
        2
102
RTVSPost2010PropOp53
 70
     1
102
RTVSPost2010Prop54
  1
strokes_ogs.tif
102
RTVSPost2010PropOp54
 70
     1
102
RTVSPost2010Prop55
280
     0
102
RTVSPost2010PropOp55
 70
     1
102
RTVSPost2010Prop56
140
1.0
102
RTVSPost2010PropOp56
 70
     1
102
RTVSPost2010Prop57
140
1.0
102
RTVSPost2010PropOp57
 70
     1
102
RTVSPropertyOp0
 70
     1
102
RTVSPropertyOp1
 70
     1
102
RTVSPropertyOp2
 70
     1
102
RTVSPropertyOp3
 70
     1
102
RTVSPropertyOp4
 70
     1
102
RTVSPropertyOp5
 70
     1
102
RTVSPropertyOp6
 70
     1
102
RTVSPropertyOp7
 70
     1
102
RTVSPropertyOp8
 70
     1
102
RTVSPropertyOp9
 70
     1
102
RTVSPropertyOp10
 70
     1
102
RTVSPropertyOp11
 70
     1
102
RTVSPropertyOp12
 70
     1
102
RTVSPropertyOp13
 70
     1
102
RTVSPropertyOp14
 70
     1
102
RTVSPropertyOp15
 70
     1
102
RTVSPropertyOp16
 70
     1
102
RTVSPropertyOp17
 70
     1
102
RTVSPropertyOp18
 70
     1
102
RTVSPropertyOp19
 70
     1
102
RTVSPropertyOp20
 70
     1
102
RTVSPropertyOp21
 70
     1
102
RTVSPropertyOp22
 70
     1
102
RTVSPropertyOp23
 70
     1
102
RTVSPropertyOp24
 70
     1
102
RTVSPropertyOp25
 70
     1
102
RTVSPropertyOp26
 70
     1
102
RTVSPropertyOp27
 70
     1
102
RTVSPropertyOp28
 70
     1
102
RTVSPropertyOp29
 70
     1
102
RTVSPropertyOp30
 70
     1
102
RTVSPropertyOp31
 70
     1
102
RTVSPropertyOp32
 70
     1
102
RTVSPropertyOp33
 70
     1
102
RTVSPropertyOp34
 70
     1
102
RTVSPropertyOp35
 70
     1
102
RTVSPropertyOp36
 70
     1
102
RTVSPropertyOp37
 70
     1
102
RTVSPropertyOp38
 70
     1
102
RTVSPropertyOp39
 70
     1
102
RTVSPropertyOp40
 70
     1
102
RTVSPropertyOp41
 70
     1
102
RTVSPropertyOp42
 70
     1
102
RTVSPropertyOp43
 70
     1
102
RTVSPropertyOp44
 70
     1
102
RTVSPropertyOp45
 70
     1
102
RTVSPropertyOp46
 70
     1
102
RTVSPropertyOp47
 70
     1
102
RTVSPropertyOp48
 70
     1
102
RTVSPropertyOp49
 70
     1
102
RTVSPropertyOp50
 70
     1
102
RTVSPropertyOp51
 70
     0
102
RTVSPropertyOp52
 70
     0
102
RTVSPropertyOp53
 70
     1
102
RTVSPropertyOp54
 70
     1
102
RTVSPropertyOp55
 70
     1
102
RTVSPropertyOp56
 70
     1
102
RTVSPropertyOp57
 70
     1
102
RTVSPropertyOp58
 70
     1
102
RTVSPropertyOp59
 70
     1
102
RTVSPropertyOp60
 70
     1
102
RTVSPropertyOp61
 70
     1
102
RTVSPropertyOp62
 70
     1
  0
XRECORD
  5
87E
102
{ACAD_REACTORS
330
87D
102
}
330
87D
100
AcDbXrecord
280
     1
102
RTVSPost2010Prop28
280
     0
102
RTVSPost2010PropOp28
 70
     1
102
RTVSPost2010Prop29
280
     1
102
RTVSPost2010PropOp29
 70
     1
102
RTVSPost2010Prop30
280
     1
102
RTVSPost2010PropOp30
 70
     1
102
RTVSPost2010Prop31
280
     0
102
RTVSPost2010PropOp31
 70
     1
102
RTVSPost2010Prop32
280
     0
102
RTVSPost2010PropOp32
 70
     1
102
RTVSPost2010Prop33
280
     0
102
RTVSPost2010PropOp33
 70
     1
102
RTVSPost2010Prop34
280
     0
102
RTVSPost2010PropOp34
 70
     1
102
RTVSPost2010Prop35
280
     0
102
RTVSPost2010PropOp35
 70
     1
102
RTVSPost2010Prop36
280
     0
102
RTVSPost2010PropOp36
 70
     1
102
RTVSPost2010Prop37
 90
       50
102
RTVSPost2010PropOp37
 70
     1
102
RTVSPost2010Prop38
140
0.0
102
RTVSPost2010PropOp38
 70
     1
102
RTVSPost2010Prop39
140
1.0
102
RTVSPost2010PropOp39
 70
     1
102
RTVSPost2010Prop40
 90
        0
102
RTVSPost2010PropOp40
 70
     1
102
RTVSPost2010Prop41ColorIndex
 90
       18
102
RTVSPost2010Prop41ColorRGB
 90
        0
102
RTVSPost2010PropOp41
 70
     1
102
RTVSPost2010Prop42
 90
       50
102
RTVSPost2010PropOp42
 70
     1
102
RTVSPost2010Prop43
 90
        3
102
RTVSPost2010PropOp43
 70
     1
102
RTVSPost2010Prop44ColorIndex
 90
        5
102
RTVSPost2010Prop44ColorRGB
 90
      255
102
RTVSPost2010PropOp44
 70
     1
102
RTVSPost2010Prop45
280
     0
102
RTVSPost2010PropOp45
 70
     1
102
RTVSPost2010Prop46
 90
       50
102
RTVSPost2010PropOp46
 70
     1
102
RTVSPost2010Prop47
 90
       50
102
RTVSPost2010PropOp47
 70
     1
102
RTVSPost2010Prop48
 90
       50
102
RTVSPost2010PropOp48
 70
     1
102
RTVSPost2010Prop49
280
     0
102
RTVSPost2010PropOp49
 70
     1
102
RTVSPost2010Prop50
 90
       50
102
RTVSPost2010PropOp50
 70
     1
102
RTVSPost2010Prop51ColorIndex
 90
      256
102
RTVSPost2010Prop51ColorRGB
 90
-16777216
102
RTVSPost2010PropOp51
 70
     0
102
RTVSPost2010Prop52
140
1.0
102
RTVSPost2010PropOp52
 70
     0
102
RTVSPost2010Prop53
 90
        2
102
RTVSPost2010PropOp53
 70
     1
102
RTVSPost2010Prop54
  1
strokes_ogs.tif
102
RTVSPost2010PropOp54
 70
     1
102
RTVSPost2010Prop55
280
     0
102
RTVSPost2010PropOp55
 70
     1
102
RTVSPost2010Prop56
140
1.0
102
RTVSPost2010PropOp56
 70
     1
102
RTVSPost2010Prop57
140
1.0
102
RTVSPost2010PropOp57
 70
     1
102
RTVSPropertyOp0
 70
     1
102
RTVSPropertyOp1
 70
     1
102
RTVSPropertyOp2
 70
     1
102
RTVSPropertyOp3
 70
     1
102
RTVSPropertyOp4
 70
     1
102
RTVSPropertyOp5
 70
     1
102
RTVSPropertyOp6
 70
     1
102
RTVSPropertyOp7
 70
     1
102
RTVSPropertyOp8
 70
     1
102
RTVSPropertyOp9
 70
     1
102
RTVSPropertyOp10
 70
     1
102
RTVSPropertyOp11
 70
     1
102
RTVSPropertyOp12
 70
     1
102
RTVSPropertyOp13
 70
     1
102
RTVSPropertyOp14
 70
     1
102
RTVSPropertyOp15
 70
     1
102
RTVSPropertyOp16
 70
     1
102
RTVSPropertyOp17
 70
     1
102
RTVSPropertyOp18
 70
     1
102
RTVSPropertyOp19
 70
     1
102
RTVSPropertyOp20
 70
     1
102
RTVSPropertyOp21
 70
     1
102
RTVSPropertyOp22
 70
     1
102
RTVSPropertyOp23
 70
     1
102
RTVSPropertyOp24
 70
     1
102
RTVSPropertyOp25
 70
     1
102
RTVSPropertyOp26
 70
     1
102
RTVSPropertyOp27
 70
     1
102
RTVSPropertyOp28
 70
     1
102
RTVSPropertyOp29
 70
     1
102
RTVSPropertyOp30
 70
     1
102
RTVSPropertyOp31
 70
     1
102
RTVSPropertyOp32
 70
     1
102
RTVSPropertyOp33
 70
     1
102
RTVSPropertyOp34
 70
     1
102
RTVSPropertyOp35
 70
     1
102
RTVSPropertyOp36
 70
     1
102
RTVSPropertyOp37
 70
     1
102
RTVSPropertyOp38
 70
     1
102
RTVSPropertyOp39
 70
     1
102
RTVSPropertyOp40
 70
     1
102
RTVSPropertyOp41
 70
     1
102
RTVSPropertyOp42
 70
     1
102
RTVSPropertyOp43
 70
     1
102
RTVSPropertyOp44
 70
     1
102
RTVSPropertyOp45
 70
     1
102
RTVSPropertyOp46
 70
     1
102
RTVSPropertyOp47
 70
     1
102
RTVSPropertyOp48
 70
     1
102
RTVSPropertyOp49
 70
     1
102
RTVSPropertyOp50
 70
     1
102
RTVSPropertyOp51
 70
     0
102
RTVSPropertyOp52
 70
     0
102
RTVSPropertyOp53
 70
     1
102
RTVSPropertyOp54
 70
     1
102
RTVSPropertyOp55
 70
     1
102
RTVSPropertyOp56
 70
     1
102
RTVSPropertyOp57
 70
     1
102
RTVSPropertyOp58
 70
     1
102
RTVSPropertyOp59
 70
     1
102
RTVSPropertyOp60
 70
     1
102
RTVSPropertyOp61
 70
     1
102
RTVSPropertyOp62
 70
     1
  0
ENDSEC
  0
EOF
